» » »

Doves - Darker Tabs

Artists:  A B C D E F G H I J K L M N O P Q R S T U V W X Y Z # 

Darker Tabs

(ver. 1) Click to play this song!
Doves
 Rating:
4/5 (4 votes)

 Darker lessons Tabs too difficult? Try these video lessons and learn fast
 
                <artist: _the_ Doves>
<track: Darker (bonus track)>

standard tuning.

--

.intro / main riffs.

----0--4--0--5--0--------------------------
-2-----------------2--4--5--0--2---------2-
-----------------------------------3-4-5---
-------------------------------------------
-------------------------------------------
-------------------------------------------


----0--4--0--5--0-----------------------
-2-----------------2--4--5--0--2----/9--
----------------------------------------
----------------------------------------
----------------------------------------
----------------------------------------

--

.transitions.

[3:17]

----------------------
-4--2-----4--2--------
-------2--------2--1--
----------------------
----------------------
----------------------

[4:00]

-----0-------0------0-------0---
---0---0---0------0---0---0---0-
-2-------1------2-------1-------
--------------------------------
--------------------------------
--------------------------------

[4:13 overlapping]

---------0h2-0-------------0h2-0--2--0----5p4--2--0------------------
-----0h2---------------0h2---------------------------0h2--0----------
-0h2---------------0h2-----------------------------------------------


---------0h2-0----5p4--13----------------16---14---12---11-----------
-----0h2---------------------0h2-0-----------------------------------
-0h2-----------------------------------------------------------------


i love this song, thx sfbmx. i know it's not exact, but it'll get you started. enjoy. -r3s3t
            
Submit corrections


        Darker lessons Hard to play? Try these video lessons and learn fast Darker lessons
        
↑ Back to top | Tablatures and chords for acoustic guitar and electric guitar, ukulele, drums are parodies/interpretations of the original songs. You may use it for private study, scholarship, research or language learning purposes only