Home » D » Doors »

Doors - Peace Forg Tabs

Artists:  A B C D E F G H I J K L M N O P Q R S T U V W X Y Z # 

Peace Forg Tabs

(ver. 1) Click to play this song!
Doors
 Rating:
4/5 (4 votes)
                This all the song parts just listen to the song for when to repeat them.
P.S. You need a wah pedal to make the intro/verse part to sound correct

Intro/Verse Part
-3-3------------------|---3-3------------------|------------------------------
-3-3--x-x-x-x-x-x-x-x-|---3-3--x-x-x-x-x-x-x-x-|------------------------------
-0-0--x-x-x-x-x-x-x-x-|---0-0--x-x-x-x-x-x-x-x-|------------------------------
-0-0--x-x-x-x-x-x-x-x-|---0-0--x-x-x-x-x-x-x-x-|------------------------------
----------------------|------------------------|------------------------------
----------------------|-1----------------------|------------------------------
                                                                              
Bridge Type Part              
-0-----3-----2-----5-5--55-|------------------------------------------------|-
-0-----3-----2-----5-5--55-|---------0---------------3---------------2------|-
-1-----4-----3-----6-6--66-|-----1-----1---------4-----4---------3-----3----|-
-2-----5-----4-----7-7--77-|---2---2-----2-----5---5-----5-----4---4-----4--|-
-2-----5-----4-----7-7--77-|---------------2---------------5---------------4|-
-0-----3-----2-----5-5--55-|-0---------------3---------------2--------------|-
                                                                              
End of Bridge Type Part
---------------------------------------------------|--------------------------
-12b-12h10----10-----------------------12-12-12-12-|--------------------------
-----------11----11b-11b-6-9-6---6-----------------|--------------------------
-------------------------------9---9-6-------------|--------------------------
---------------------------------------------------|--------------------------
---------------------------------------------------|--------------------------
                                                                              
Ending Type Part
-3-----5-----3-----5-|--------------------------------------------------------
-3-----5-----3-----5-|--------------------------------------------------------
-3-----5-----3-----5-|--------------------------------------------------------
-5-----5-----5-----5-|--------------------------------------------------------
-5-----3-----5-----3-|--------------------------------------------------------
-3-----------3-------|--------------------------------------------------------
            
Submit corrections

↑ Back to top | Tablatures and chords for acoustic guitar and electric guitar, ukulele, drums are parodies/interpretations of the original songs. You may use it for private study, scholarship, research or language learning purposes only