» » »

Dixie Dregs - To Witcher Tabs

Artists:  A B C D E F G H I J K L M N O P Q R S T U V W X Y Z # 

To Witcher Tabs

(ver. 1) Click to play this song!
Dixie Dregs
 Rating:
3.1/5 (29 votes)

 To Witcher  lessons Tabs too difficult? Try these video lessons and learn fast
 
                Listen to the track for timing.

-------------------0-----------------(12)-----2h4--2h4p2p0--------------------------------(12--|
----------------------0--------------(12)---------------------------2h4--2h4p2p0----------(12--|
-0--1--0--1/3----------/1--0---------(12)--------------------------------------------1--0-(12--|
-------------------------------------(12)-------------------------------------------------(12--|
-0--2--0--2/4----------/2--0----------------------------------------0----------------2--0------|
----------------------------------------------0------------------------------------------------|

--11/12------------9-------7-------7/9---4--------4/7---0-------------------------------------------|
------------0--------7-------5-----5/7------2-----2/5------0-----------------------2/4--------------|
--11/12--------0-------0--------0--------------0-----------------1---0h1p0--------------------------|
-----------------0------------------------------------------------------------0----2/4--------------|
----------------------------------------------------------------------------------------------------|
----------------------------------------------------------------------------------------------------|

------0----------------------------------0-----------------(7)----(12--|
----------4-----/2--0---------------0-------0--------------(7)----(12--|
--0----------0------------0---1/3-----------------/1--0----(7)----(12--|
----------------/2--0--------------------------------------(7)----(12--|
--------------------------0---2/4-----------------/2--0----------------|
-----------------------------------------------------------------------|

--------------------------------------------------------------------------------|
-----------------(5)-------------------------(5)--------------------------------|
------------(5)------(7)-----------(7)-----------(7)------------(7)-------------|
-------(5)----------------(7)-----------(7)----------(7)-------------(7)--------|
--(5)--------------------------(7)-------------------------(7)------------------|
--------------------------------------------------------------------------------|

-------------------------------------------------------------|
--(5)----------------------------(5)-------------------------|
-------(5)-------------(5)-----------------------------------|
------------(5)-------------(5)---------    Harmony part x 2-|
------------------(5)----------------------------------------|
-------------------------------------------------------------|


--4--2--0-------------------------------5---5h9---7---------------5---------4---|
-------------5----------------------5-------------------0-----------0-----------|
--------------------5------------5--------------------------0----------0--------|
------------------------5--------------------------------------0----------------|    x2
--------------------------------------------------------------------------------|
--0--2--4----5------------------------------------0-----------------------------|

--0-------------2---------0--------------2-------------0---------------2-----------0-----|
------0-------------0----------0-------------0--------------0-------------0--------0-----|
---------0-------------0-----------0-------------0--------------0------------0-----1-----|
------------0---0----------------------0-----------------------------0--------------0----|
----------------------------3----------------------------2----------------------------1--|
--0--------------------------------------------------------------------------------------|

--0-----------2---------4------------4p2----------0---------------0---------|
-----0------------0----------0--------------0---------0--------------0------|
--------0------------0-----------0-----------------------0--------------0---|
-----------0----------------------------------------------------------------|
------------------------0------------0--------------------------------------|
--0-----------------------------------------------0----------0--------------|

--7h9---12-------------9---------7----------7/9----------4--------------2-----------0----------|
---------------0-----------0--------0-------------0-----------0--------------0-----------0-----|
------------------0------------0--------0------------0------------0--------------0-----------0-|
---------------------0-----------------------------------------------0--------------0----------|
--0--------------------------------------------------------------------------------------------|
---------0-----------------------------------------------0-------------------------------------|

------0---------------------------------------------------------------------------------------------|
---------0-------9-----------------9----------------------------------7---------------7-------------|
----------------------7-----------------7----7---8---10------8/5---------5----------------5---------|
--0--------------8-------8-----------------------------------9/6------------6-----------------6-----|
------------------------------9----------------------------------------------------7----------------|
----------------------------------------------------------------------------------------------------|

-------------------------------------------------------------------------|
--5----------------5---------5------------------5--------7----5---4------|
------5-----------------5----------5-----------------5-------------------|
----------5-----------------------------5--------------------------------|
---------------------------------------------------------7--------0------|
--5------------5-------------5--------------5-----------------5----------|            
Submit corrections


        To Witcher  lessons Hard to play? Try these video lessons and learn fast To Witcher  lessons
        
↑ Back to top | Tablatures and chords for acoustic guitar and electric guitar, ukulele, drums are parodies/interpretations of the original songs. You may use it for private study, scholarship, research or language learning purposes only