Home » D » Divine Heresy »

Divine Heresy - Bleed The Fifth Tabs

Artists:  A B C D E F G H I J K L M N O P Q R S T U V W X Y Z # 

Bleed The Fifth Tabs

(ver. 3) Click to play this song!
Divine Heresy
 Rating:
4/5 (4 votes)
                I didn't tab the lead for this.


Intro

d|--------------------------------------------------------------|
a|--------------------------------------------------------------|
F|-------7\6/7--------7\6/10------------------------------------|
C|-----------------------------------------------------8888-----|
G|-------5\4/5--------5\4/8--------88881111111188887777----7777-|
D|-1114---------4441---------0000-------------------------------|
A|--------------------------------------------------------------|
   ....         ....         ....

d|--------------------------------------------------------------|
a|--------------------------------------------------------------|
F|-------7\6/7--------7\6/10------------------------------------|
C|-----------------------------------------------------88888888-|
G|-------5\4/5--------5\4/8--------88881111111188887777---------|
D|-1114---------4441---------0000-------------------------------|
A|--------------------------------------------------------------|
   ....         ....         ....

Verse

d|------------------------------------------------------------|
a|------------------------------------------------------------|
F|------------------------------------------------------------|
C|-------------5---5---7--------------10---10---7-------------|
G|-------------3---2---5--------------8----7----5-------------|
D|-0002--2225----0---0----0002--2225-----0----0---------------|
A|------------------------------------------------------------|
   ....  ....    .   .    ....  ....     .    .

d|------------------------------------------------------------|
a|------------------------------------------------------------|
F|------------------------------------------------------------|
C|-------------5---5---7--------------10---10---12------------|
G|-------------3---2---5--------------8----7----10------------|
D|-0002--2225----0---0----0002--2225-----0----0---------------|
A|------------------------------------------------------------|
   ....  ....    .   .    ....  ....     .    .

Chorus lead in

d|------------------------------------------------------------|
a|------------------------------------------------------------|
F|------------------------------------------------------------|
C|------------------------------------------------------------|
G|-8----7----5------------------------------------------------|
D|-6----5----3------------------------------------------------|
A|------------------------------------------------------------|

Chorus

d|------------------------------------------------------------|
a|------------------------------------------------------------|
F|------------------------------------------------------------|
C|---------------------------------------------------8888-----|
G|-------------------------------88881111111188887777----7777-|
D|-0000--------0000--------0000-------------------------------|
A|------------------------------------------------------------|
   ....        ....        ....

d|------------------------------------------------------------|
a|------------------------------------------------------------|
F|------------------------------------------------------------|
C|---------------------------------------------------88888888-|
G|-------------------------------88881111111188887777---------|
D|-0000--------0000--------0000-------------------------------|
A|------------------------------------------------------------|
   ....        ....        ....

Bridge/Solo

d|------------------------------------------------------------|
a|------------------------------------------------------------|
F|------------------------------------------------------------|
C|----------------------------------7777666---77776666--------|
G|------------------------------------------------------------|
D|-5555888877775555444444444444440---------0------------------|
A|------------------------------------------------------------|
                                 .         .

d|------------------------------------------------------------|
a|------------------------------------------------------------|
F|------------------------------------------------------------|
C|----------------------------------7777666---66669999--------|
G|------------------------------------------------------------|
D|-5555888877775555444444444444440---------0------------------|
A|------------------------------------------------------------|
                                 .         .

Outro

d|------------------------------------------------------------|
a|------------------------------------------------------------|
F|------------------------------------------------------------|
C|------------------------------------------------------------|
G|------------------------------------------------------------|
D|-----------------6----5---5------------------6----5---8-----|
A|-6-6-6-6-6-6-6-6-8--6-7-6-7--6-6-6-6-6-6-6-6-8--6-7-6-10----|
   . . . . . . . .    .   .    . . . . . . . .    .   .
            
Submit corrections

↑ Back to top | Tablatures and chords for acoustic guitar and electric guitar, ukulele, drums are parodies/interpretations of the original songs. You may use it for private study, scholarship, research or language learning purposes only