» » »

Disturbed - Intoxication Tabs

Artists:  A B C D E F G H I J K L M N O P Q R S T U V W X Y Z # 

Intoxication Tabs

(ver. 1) Click to play this song!
Disturbed
 Rating:
4/5 (4 votes)

 Intoxication lessons Tabs too difficult? Try these video lessons and learn fast
 
                
Tuning: Drop D, 1/2 Step Down (Db,Ab,Db,Gb,Bb,Eb)

INTRO:
|--------------------------------------------------------|
|--------------------------------------------------------|
|--------------------------------------------------------|
|--------------------------------------------------------|
|-6-5-2--2-5-3-2-2--2-2-5-2--6-5-2--2-5-3-2-2--2-2-3-0-0-|
|-6-5-2--2-5-3-2-2--2-2-5-2--6-5-2--2-5-3-2-2--2-2-3-0-0-|

INTRO 2:
|--------------------------------------------------------|
|--------------------------------------------------------|
|--------------------------------------------------------|
|-6-5-2--2-5-3-2-2--2-2-5-2--6-5-2--2-5-3-2-2--2-2-3-0-0-|
|-6-5-2--2-5-3-2-2--2-2-5-2--6-5-2--2-5-3-2-2--2-2-3-0-0-|
|-6-5-2--2-5-3-2-2--2-2-5-2--6-5-2--2-5-3-2-2--2-2-3-0-0-|

VERSE:
|--------------------------------------------------------|
|--------------------------------------------------------|
|--------------------------------------------------------|
|--------------------------------------------------------|
|--------------------------------------------------------|
|-6-5-2--2-5-3-2-2--2-2-5-2--6-5-2--2-5-3-2-2--2-2-3-0-0-|

BRIDGE:
|-------------------------------------------------------------|
|-------------------------------------------------------------|
|-------------------------------------------------------------|
|-2-2-2-XX-2/3--3-X-3/7-7--2-2-2-XX-2/3--3--0-0--2-2-2-XX-2/3-|
|-2-2-2-XX-2/3--3-X-3/7-7--2-2-2-XX-2/3--3--0-0--2-2-2-XX-2/3-|
|-2-2-2-XX-2/3--3-X-3/7-7--2-2-2-XX-2/3--3--0-0--2-2-2-XX-2/3-|
pm                                          . .

|---------------------------|
|---------------------------|
|---------------------------|
|-3-X-3/7-7-/10---/5-XX-5-5-|
|-3-X-3/7-7-/10---/5-XX-5-5-|
|-3-X-3/7-7-/10---/5-XX-5-5-|

CHORUS: (guitar 1)
|--------------------------------------------------------------|
|--------------------------------------------------------------|
|--------------------------------------------------------------|
|-3-3-3-3-33-2-2-2-2-22-10-10-10-10-1010-5-5-5-5-55-3-3-3-3-33-|
|-3-3-3-3-33-2-2-2-2-22-10-10-10-10-1010-5-5-5-5-55-3-3-3-3-33-|
|-3-3-3-3-33-2-2-2-2-22-10-10-10-10-1010-5-5-5-5-55-3-3-3-3-33-|

|--------------------------------------------------------|
|--------------------------------------------------------|
|--------------------------------------------------------|
|-2-2-2-2-22-0-----------------------5--5555-5-5-5h7-5-3-|
|-2-2-2-2-22-0--0-0-0-0--0--00-0-0---5--5555-5-5-5h7-5-3-|
|-2-2-2-2-22-0--0-0-0-0--0--00-0-0---5--5555-5-5-5h7-5-3-|
pm              . . . .  .  .. . .

CHORUS: (guitar 2)
|----------------|
|----------------|
|-4-44-5-55-7-77-|
|-X-XX-X-XX-X-XX-|
|-2-22-3-33-5-55-|
|----------------|

CHORUS FILL: (guitar 1)
|-----------------|
|-----------------|
|-----------------|
|-5-5555--555-5-5-|
|-5-5555--555-5-5-|
|-5-5555--555-5-5-|

INTERLUDE:
|-------------------------------------|
|-------------------------------------|
|-------------------------------------|
|-2-2-XXX-2-2-XXXXX-2-2-XXX-2-2-XXX-X-|
|-2-2-XXX-2-2-XXXXX-2-2-XXX-2-2-XXX-X-|
|-2-2-XXX-2-2-XXXXX-2-2-XXX-2-2-XXX-X-|
            
Submit corrections


        Intoxication lessons Hard to play? Try these video lessons and learn fast Intoxication lessons
        
↑ Back to top | Tablatures and chords for acoustic guitar and electric guitar, ukulele, drums are parodies/interpretations of the original songs. You may use it for private study, scholarship, research or language learning purposes only