» » »

Disturbed - Im Alive Tabs

Artists:  A B C D E F G H I J K L M N O P Q R S T U V W X Y Z # 

Im Alive Tabs

(ver. 3) Click to play this song!
Disturbed
 Rating:
4/5 (4 votes)

 Im Alive lessons Tabs too difficult? Try these video lessons and learn fast
 
                Band: Disturbed

Tuning: Drop C (C G C F A D)

Fig 1
|------------------------------------|
|------------------------------------|
|------------------------------------|
|-5--5---5-6--5---5-6--5---5-6h8-----|
|-5--5-0-5-6--5-0-5-6--5-0-5-6h8-1-3-|
|-5--5-0-5-6--5-0-5-6--5-0-5-6h8-1-3-|
[P.M.] *        *        *       * *

Fig 2
|--------------------------------------------|
|--------------------------------------------|
|--------------------------------------------|
|-5--5---5-6--5---5-6--5---5-6h8---6h8---6h8-|
|-5--5-0-5-6--5-0-5-6--5-0-5-6h8-0-6h8-0-6h8-|
|-5--5-0-5-6--5-0-5-6--5-0-5-6h8-0-6h8-0-6h8-|
[P.M.] *        *        *       *     *

Fig 3
|-------------------|
|-------------------|
|-------------------|
|-1---4-3-1---4-3-6-|
|-1---4-3-1---4-3-6-|
|-1---4-3-1---4-3-6-|

Fig 4
|------------------------|
|------------------------|
|------------------------|
|------------------------|
|-5--5--3h5-5--6---8-6-8-|
|-5--5--3h5-5--6---8-6-8-|
[PALM MUTE ALL]

Fig 5
|------------------------|
|------------------------|
|------------------------|
|------------------------|
|-5--5--3h5-5--6---8-6-3-|
|-5--5--3h5-5--6---8-6-3-|
[PALM MUTE ALL]

Fig 6
|--------------------------|
|--------------------------|
|--------------------------|
|--------------------------|
|-5--5--3h5-5--6--6--8-6-8-|
|-5--5--3h5-5--6--6--8-6-8-|

Fig 7
|--------------------------|
|--------------------------|
|--------------------------|
|--------------------------|
|-5--5--3h5-5--6--6--8-6-3-|
|-5--5--3h5-5--6--6--8-6-3-|

Fig 8
|--------------------------------|
|--------------------------------|
|--------------------------------|
|-5---8---1---3---5---8---1---10-|
|-5---8---1---3---5---8---1---10-|
|-5---8---1---3---5---8---1---10-|

a)                                                  b)
|---------------------------------------------------|----|
|---------------------------------------------------|----|
|---------------------------------------------------|----|
|-5---8---1---3---5---8---1-------------------------|-12-|
|-5---8---1---3---5---8---1---1010-10-10-1010-10-10-|-12-|
|-5---8---1---3---5---8---1---1010-10-10-1010-10-10-|-12-|
[P.M.]                        * *  *  *  * *  *  *
                              (these are 10's, not 1's and 0's)

Fig 9
|---------------------------|
|---------------------------|
|---------------------------|
|-5--0--1------5--0--1--0-3-|
|-5--0--1--01015--0--1--0-3-|
|-5--0--1--01015--0--1--0-3-|
[P.M.]     ****

Fig 10
|---------------------------------|
|---------------------------------|
|---------------------------------|
|-0--10--0--10-10-0--10--0--10-12-|
|-0--10--0--10-10-0--10--0--10-12-|
|-0--10--0--10-10-0--10--0--10-12-|

|-----------------------------|
|-----------------------------|
|-----------------------------|
|-0--10--0--10-10--3----------|
|-0--10--0--10-10--3---222532-|
|-0--10--0--10-10--3---222532-|
[P.M.]                 ******
            
Submit corrections


        Im Alive lessons Hard to play? Try these video lessons and learn fast Im Alive lessons
        
↑ Back to top | Tablatures and chords for acoustic guitar and electric guitar, ukulele, drums are parodies/interpretations of the original songs. You may use it for private study, scholarship, research or language learning purposes only