» » »

Disturbed - Get Psycho Tabs

Artists:  A B C D E F G H I J K L M N O P Q R S T U V W X Y Z # 

Get Psycho Tabs

(ver. 2) Click to play this song!
Disturbed
 Rating:
4/5 (4 votes)

 Get Psycho lessons Tabs too difficult? Try these video lessons and learn fast
 
                -------------------------------------------------------------------------------
                             GET PSYCHO - Disturbed
-------------------------------------------------------------------------------

Tuning: Half-Step Down (Eb Ab Db Gb Bb Eb)

 /  slide up
 \  slide down
 h  hammer-on
 p  pull-off
 ~  vibrato
 x  Mute note

I think the notes in this tab are fairly accurate, but the number of
repetitions on some of them may be a bit off, since this is my first tab.

Also, you'll have to listen to the song for the timing.

Intro (0:07)
e|---------------------------------------------------------------------------|
B|---------------------------------------------------------------------------|
G|---------------------------------------------------------------------------|
D|---2-2----------------2-2---------------2-2--------------2-2---------------|
A|---2-2----------------2-2---------------2-2--------------2-2---------------|
E|---0-0----------------0-0---------------0-0--------------0-0---------------|
PM   .                  .                 .                .

(0:21)
e|-------------| 
B|-------------|
G|-------------|
D|----2--------| there's a pickslide after this chord
A|----2--------|
E|----0--------|

(0:23)
e|---------------------------------------------------------------------------|
B|---------------------------------------------------------------------------|
G|---------------------------------------------------------------------------|
D|--3-2-------------------------2-3-5-7---3-2----------------3-2----5---7---8|
A|--3-2-------------------------2-3-5-7---3-2----------------3-2----5---7---8|
E|--1-0--0-0--0000--0--000--0-0-0-1-3-5---1-0--0-0-0000-000--1-0----3---5---6| x 2
PM       . .  ....  .  ...                     . . .... ...

One guitar continues to play the above, and the other moves on to the next part

(0:38)
Let these ring before you slide to the next one (listen to the song for timing)
e|-------------------------|
B|-------------------------|
G|---9/16-----9/17\16/20---|
D|-------------------------|
A|-------------------------|
E|-------------------------| x 2

Verse
(0:53)
e|---------------------------------------------------------------------------|
B|---------------------------------------------------------------------------|
G|---------------------------------------------------------------------------|
D|--3-2-------------------------2-3-5-7---3-2----------------3-2----5---7---8|
A|--3-2-------------------------2-3-5-7---3-2----------------3-2----5---7---8|
E|--1-0--0-0--0000--0--000--0-0-0-1-3-5---1-0--0-0-0000-000--1-0----3---5---6| x 3
PM       . .  ....  .  ...                     . . .... ...

Prechorus
(1:24)
e|-------------------------------|
B|-------------------------------|
G|-------------------------------|
D|-------------------------------|
A|-------------------------------|
E|-0-1-0-1-0--0-1-0-1-0--0-1-3---| x 5

Chorus
(1:39)
One guitar does this
e|-------------------------|
B|-------------------------|
G|---9/16-----9/17\16/20---|
D|-------------------------|
A|-------------------------|
E|-------------------------| x 2

and the other does this
e|---------------------------------------------------------------------------|
B|---------------------------------------------------------------------------|
G|---------------------------------------------------------------------------|
D|--3-2-------------------------2-3-5-7---3-2----------------3-2----5---7---8|
A|--3-2-------------------------2-3-5-7---3-2----------------3-2----5---7---8|
E|--1-0--0-0--0000--0--000--0-0-0-1-3-5---1-0--0-0-0000-000--1-0----3---5---6| x 2
PM       . .  ....  .  ...                     . . .... ...

Then both guitars together
e|---------------------------------------------------------------------------|
B|---------------------------------------------------------------------------|
G|---------------------------------------------------------------------------|
D|--3-2-------------------------2-3-5-7---3-2----------------3-2----5---7---8|
A|--3-2-------------------------2-3-5-7---3-2----------------3-2----5---7---8|
E|--1-0--0-0--0000--0--000--0-0-0-1-3-5---1-0--0-0-0000-000--1-0----3---5---6| x 4
PM       . .  ....  .  ...                     . . .... ...

Prechorus
(2:25)
e|--------------------------------|
B|--------------------------------|
G|--------------------------------|
D|--------------------------------|
A|--------------------------------|
E|--0-1-0-1-0--0-1-0-1-0--0-1-3---| x 5

Bridge
(2:40)
e|---------------|
B|---------------|
G|---------------|
D|-2-------------|
A|-2--let ring---|
E|-0-------------|

(2:55)
e|--------------------------------------------|
B|--------------------------------------------|
G|--------------------------------------------|
D|-2-2----2-2----2-2----2-2----2-2-2-3-2------|
A|-2-2----2-2----2-2----2-2----2-2-2-3-2------|
E|-0-0----0-0----0-0----0-0----0-0-0-1-0------| x 8

Outro
(3:28)
e|---------------------------------------------------------------------------|
B|---------------------------------------------------------------------------|
G|---------------------------------------------------------------------------|
D|--3-2-------------------------2-3-5-7---3-2----------------3-2----5---7---8|
A|--3-2-------------------------2-3-5-7---3-2----------------3-2----5---7---8|
E|--1-0--0-0--0000--0--000--0-0-0-1-3-5---1-0--0-0-0000-000--1-0----3---5---6| x 2
PM       . .  ....  .  ...                     . . .... ...

(3:44)
One guitar does this
e|-------------------------|
B|-------------------------|
G|---9/16-----9/17\16/20---|
D|-------------------------|
A|-------------------------|
E|-------------------------| x 2

And the other does this
e|--------------------------------------------------------------------|
B|--------------------------------------------------------------------|
G|--------------------------------------------------------------------|
D|--3-2-----------------------------2-3-------------------------------|
A|--3-2-----------------------------2-3-------------------------------|
E|--1-0--0-0--0000--0--000--0-0-0-0-0-1---0-0--0-0-0000-000-0-0-0-0---| x 2
PM       . .  ....  .  ...  . . . . . .   . .  . . .... ... . . . . 

(3:52)
e|----------------------|
B|----------------------|
G|----------------------|
D|--3-2-----3---5---6---|
A|--3-2-----3---5---6---|
E|--1-0-----1---3---4---|

 /  slide up
 \  slide down
 h  hammer-on
 p  pull-off
 ~  vibrato
 x  Mute note
===============================================================================
            
Submit corrections


        Get Psycho lessons Hard to play? Try these video lessons and learn fast Get Psycho lessons
        
↑ Back to top | Tablatures and chords for acoustic guitar and electric guitar, ukulele, drums are parodies/interpretations of the original songs. You may use it for private study, scholarship, research or language learning purposes only