» » »

Disturbed - Forgiven Tabs

Artists:  A B C D E F G H I J K L M N O P Q R S T U V W X Y Z # 

Forgiven Tabs

(ver. 3) Click to play this song!
Disturbed
 Rating:
4/5 (4 votes)

 Forgiven lessons Tabs too difficult? Try these video lessons and learn fast
 
                Here's Forgiven, whole song, little difficult, enjoy!

h=hammer on
p=pull off
b=bend
*=harmonics
~=vibrato
/or\=slide
P.M.=palm mute
X=chug


Forgiven
Drop C

Intro
D---------------------------------------|
A---------------------------------------|
F---------------------------------------|
C-----------------------3-3-3-8-8-8-8-8-|
G-7-5-7-5-7-7-5-7-5-7-7-3-3-3-8-8-8-8-8-|
C-7-5-7-5-7-7-5-7-5-7-7-3-3-3-8-8-8-8-8-|
P.M.. . . . . . . . . . . . . . . . . .

D---------------------------------------|
A---------------------------------------|
F---------------------------------------|
C-----------------------3-3-3-8-8-8-8-8-|
G-7-5-7-5-7-7-5-7-5-7-7-3-3-3-8-8-8-8-8-|
C-7-5-7-5-7-7-5-7-5-7-7-3-3-3-8-8-8-8-8-|
P.M.. . . . . . . . . .

Pre-verse:Guitar 1, play twice.
D----------------------------------------|
A----------------------------------------|
F----------------------------------------|
C-----------------------3-3-3-8-8-8-8-8--|
G-7-5-7-5-7-7-5-7-5-7-7-3-3-3-8-8-8-8-8--|
C-7-5-7-5-7-7-5-7-5-7-7-3-3-3-8-8-8-8-8--|

Guitar 2:Play twice, Sounds like there's a high part through this whole thing.
D----------------------------------------|
A----------------------------------------|
F-9-7-9-7-9-9-7-9-7-9-9-5-5-5-1010101010-|
C-X-X-X-x-X-X-X-X-X-X-X-X-X-X-X-X-X-X-X--|
G-7-5-7-5-7-7-5-7-5-7-7-3-3-3-8-8-8-8-8--|
C----------------------------------------|

Verse:Play twice, Guitar 1 I believe.
D---------------------------------------|
A---------------------------------------|
F---------------------------------------| Play twice . . .then . . .
C-----------------------3-3-3-8-8-8-8-8-|
G-7-5-7-5-7-7-5-7-5-7-7-3-3-3-8-8-8-8-8-|
C-7-5-7-5-7-7-5-7-5-7-7-3-3-3-8-8-8-8-8-|
P.M.. . . . . . . . . . . . . . . . . .

D--------|
A--------|
F--------| . . . then . . .
C----5*--|
G-5*-----|
C--------|

Guitar 1 only.
D---------------------------------------|
A---------------------------------------|
F---------------------------------------| Play twice
C-----------------------3-3-3-8-8-8-8-8-|
G-7-5-7-5-7-7-5-7-5-7-7-3-3-3-8-8-8-8-8-|
C-7-5-7-5-7-7-5-7-5-7-7-3-3-3-8-8-8-8-8-|

Guitar 2 I believe, use a tremelo and reverb effect, hard to figure out.
D--------------------------|
A--------------------------|
F-------5*-------------5*--| Play four times.
C----5*-------------5*-----|
G-5*--------5*---5*--------|
C--------------------------|

Chorus
D-----------------------------------------|
A-----------------------------------------|
F-----------------------------------------|
C-3-x-x-3-0-7---------------5h7p5---------|
G-3-x-x-3-0-7-5h7-7-0-0-5h7-------7p5-----|
C-3-x-x-3-0-7-5h7-7-0-0---------------7p5-|
P.M.                . .

D-----------------------------------|
A-----------------------------------|
F-----------------------------------|
C-3-x-x-3-8-7-----------------------|
G-3-x-x-3-8-7-5h7-7p5-5h7-7p5-5-7-8-|
C-3-x-x-3-8-7-5h7-7p5-5h7-7p5-5-7-8-|

D-----------------------------------------|
A-----------------------------------------|
F-----------------------------------------|
C-3-x-x-3-0-7---------------5h7p5---------|
G-3-x-x-3-0-7-5h7-7-0-0-5h7-------7p5-----|
C-3-x-x-3-0-7-5h7-7-0-0---------------7p5-|
P.M.                . .

D---------------------------|
A---------------------------|
F-7-7-7-7-7-7-7-------------|
c-5-5-5-5-5-5-5-3-2-0-2-3-5-|
G-5-5-5-5-5-5-5-3-2-0-2-3-5-|
C-5-5-5-5-5-5-5-3-2-0-2-3-5-|

Bridge:Hold.
D----------|
A----------|
F----------|
C-7--------|
G-7--------|
C-7--------|

Play four times.
D-----------------------------------------|
A-----------------------------------------|
F-----------------------------------------|
C-7-7-7-7-7-3-3-3-3-3-8-8-8-8-8-2-2-2-2-2-|
G-7-7-7-7-7-3-3-3-3-3-8-8-8-8-8-2-2-2-2-2-|
C-7-7-7-7-7-3-3-3-3-3-8-8-8-8-8-2-2-2-2-2-|
P.M. . . . . . . . . . . . . . . . . . .

D---------------|
A---------------|
F---------------|
C-2-2-2-2-2-2-2-|
G-2-2-2-2-2-2-2-|
C-2-2-2-2-2-2-2-|
P.M.. .

Solo:Use a lotta wah.
D------------------------------------------------------|
A------------------------------------------------------|
F---------------------------7^-7-5-------7^-7-5--------|
C-7-5-7-5-7-7-5-7-5-7-7-5-7--------7-5-7--------5-7-7--|
G------------------------------------------------------|
C------------------------------------------------------|

D-----------------------------------------|
A-----------------------------------------|
F-----------------------------------------|
C-7-5-7-7-5-7-5/3-------2/4-4/6-6/7-9-5h7-|
G-----------------3\5-3-------------------|
C-----------------------------------------|

D----------------------------------------------------------------------|
A----------------------------------------------------------------------|
F-------12--------------------------12^--12-10----12-14-12----12-10----|
C-12-14----14-12--------------12-14------------12----------12-------12-|
G----------------14--14-12-14------------------------------------------|
C----------------------------------------------------------------------|

D-----------------------------13/15-|
A-------------17^-17-15-13-10-------|
F-15-17-15-17-----------------------|
C-----------------------------------|
G-----------------------------------|
C-----------------------------------|

D-17p15p13-19p17p13-17p15p13-19p17p13-17p15p13-19p17p13-17p15p13-12~-|
A--------------------------------------------------------------------|
F--------------------------------------------------------------------|
C--------------------------------------------------------------------|
G--------------------------------------------------------------------|
C--------------------------------------------------------------------|


Last chorus
D-----------------------------------------|
A-----------------------------------------|
F-----------------------------------------|
C-3-x-x-3-0-7---------------5h7p5---------|
G-3-x-x-3-0-7-5h7-7-0-0-5h7-------7p5-----|
C-3-x-x-3-0-7-5h7-7-0-0---------------7p5-|
P.M.                . .

D-----------------------------------|
A-----------------------------------|
F-----------------------------------|
C-3-x-x-3-8-7-----------------------|
G-3-x-x-3-8-7-5h7-7p5-5h7-7p5-5-7-8-|
C-3-x-x-3-8-7-5h7-7p5-5h7-7p5-5-7-8-|

D-----------------------------------------|
A-----------------------------------------|
F-----------------------------------------|
C-3-x-x-3-0-7---------------5h7p5---------|
G-3-x-x-3-0-7-5h7-7-0-0-5h7-------7p5-----|
C-3-x-x-3-0-7-5h7-7-0-0---------------7p5-|
P.M.                . .

D---------------------------|
A---------------------------|
F-7-7-7-7-7-7-7-------------|
c-5-5-5-5-5-5-5-3-2-0-2-3-5-|
G-5-5-5-5-5-5-5-3-2-0-2-3-5-|
C-5-5-5-5-5-5-5-3-2-0-2-3-5-|

D-------------------------------|
A-------------------------------|
F-------------------------------|
C-----------------5h7p5---------|
G-3p2-3p2-3p2-5h7-------7p5-----|
C-3p2-3p2-3p2---------------7p5-|

Outro
D--------------------------------------------------|
A--------------------------------------------------|
F--------------------------------------------------|
C-----------------------3-x-3-x-3-8-x-8-x-8-x-8-10-|
G-7-5-7-5-7-7-5-7-5-7-7-3-x-3-x-3-8-x-8-x-8-x-8-10-|
C-7-5-7-5-7-7-5-7-5-7-7-3-x-3-x-3-8-x-8-x-8-x-8-10-|

Hold it.
D---------------|
A---------------|
F---------------|
C-7-------------|
G-7-------------|
C-7-------------|
            
Submit corrections


        Forgiven lessons Hard to play? Try these video lessons and learn fast Forgiven lessons
        
↑ Back to top | Tablatures and chords for acoustic guitar and electric guitar, ukulele, drums are parodies/interpretations of the original songs. You may use it for private study, scholarship, research or language learning purposes only