» » »

Disturbed - Fear Tabs

Artists:  A B C D E F G H I J K L M N O P Q R S T U V W X Y Z # 

Fear Tabs

(ver. 3) Click to play this song!
Disturbed
 Rating:
4/5 (4 votes)

 Fear lessons Tabs too difficult? Try these video lessons and learn fast
 
                Drop Db:
Db Ab Db Gb Bb Eb

Intro: w/ whammy pedal up 1 oct.

Riff A:

e--------19--18-----------------------15------17-------
b-17------------------17--19---------------------------
g------------------------------------------------------
d------------------------------------------------------
a------------------------------------------------------
d------------------------------------------------------

gtr 2. w/ Riff A

e------------------------------------------------------
b------------------------------------------------------
g------------------------------------------------------
d--------9---8-----------------------------------------
a-7--------------------7---9----------10------12-------
d------------------------------------------------------

Fig. 1

e-------------------------------------------------------------
b-------------------------------------------------------------
g-------------------------------------------------------------
d-------------------------------------------------------------
a-2-0-2----3-0-3-2-0-2----3-0-3-2-0-2----3-0-3-2-0-2-----3-5--
d-2-0-2----3-0-3-2-0-2----3-0-3-2-0-2----3-0-3-2-0-2-----3-5--

e-------------------------------------------------------------
b-------------------------------------------------------------
g-------------------------------------------------------------
d-------------------------------------------------------------
a-2-0-2----3-0-3-2-0-2----3-0-3-2-0-2----3-0-3-2-0-2-----5-3--
d-2-0-2----3-0-3-2-0-2----3-0-3-2-0-2----3-0-3-2-0-2-----5-3--

Verses:

e-------------------------------------------------------------
b-------------------------------------------------------------
g-------------------------------------------------------------
d-------------------------------------------------------------
a-2-----------------------------------------------------x\----
d-2-----------------------------------------------------x\----

e-------------------------------------------------------------
b-------------------------------------------------------------
g-------------------------------------------------------------
d-------------------------------------------------------------
a-2---------------------------------2-------------------------
d-2-0-2----3-0-3-2-0-2----3-0-3-2-0-2----3-0-3-2-0-2----3-2-3-
pm

e-------------------------------------------------------------
b-------------------------------------------------------------
g-------------------------------------------------------------
d-------------------------------------------------------------
a-2---------------------------------2-------------------3--8--
d-2-0-2----3-0-3-2-0-2----3-0-3-2-0-2----3-0-3-2-0-2----3--8--
pm

Pre Chorus:

x2
e-------------------------------------------------------------
b-------------------------------------------------------------
g-------------------------------------------------------------
d-------------------------------------------------------------
a-3-5-2----2-5/7--2---2-3-5-0-3-5/7-2--2--2-2-2-2-2-2-8-8-8-8-
d-3-5-2----2-5/7--2---2-3-5-0-3-5/7-2--2--2-2-2-2-2-2-8-8-8-8-


...go with it now...

e-------------------------------------------------------------
b-------------------------------------------------------------
g-------------------------------------------------------------
d-9------------------------------9-----------------------5-10-
a-7-------2----3-----5-----5--3--7-------2----3-----5----3--8-
d---------2----3-----5-----5--3----------2----3-----5---------

Breakdown:

e-----------------------------------------------------------------
b-----------------------------------------------------------------
g-------3----------3----------3----------3-------------------2----
d-2-2--------2-2--------2-2--------2-2--------2---2-3-2-0----0----
a-2-2--------2-2--------2-2--------2-2--------2---2-3-2-0----0----
d-2-2--------2-2--------2-2--------2-2--------2---2-3-2-0----0----

e-----------------------------------------------------------------
b-----------------------------------------------------------------
g-------3----------3----------3----------3------------------------
d-2-2--------2-2--------2-2--------2-2--------2---2-3-2-0---------
a-2-2--------2-2--------2-2--------2-2--------2---2-3-2-0---/12\--
d-2-2--------2-2--------2-2--------2-2--------2---2-3-2-0---/12\--

e-------------------------------------------------------------
b-------------------------------------------------------------
g-------------------------------------------------------------
d-------------------------------------------------------------
a-------------------------------------------------------------
d-2-3-2-0----2---2-3-2-0----2-----2---3---2---0------2--------
            
Submit corrections


        Fear lessons Hard to play? Try these video lessons and learn fast Fear lessons
        
↑ Back to top | Tablatures and chords for acoustic guitar and electric guitar, ukulele, drums are parodies/interpretations of the original songs. You may use it for private study, scholarship, research or language learning purposes only