» » »

Disturbed - Down With The Sickness 1 Tabs

Artists:  A B C D E F G H I J K L M N O P Q R S T U V W X Y Z # 

Down With The Sickness 1 Tabs

(ver. 2) Click to play this song!
Disturbed
 Rating:
4/5 (4 votes)

 Down With The Sickness 1 lessons Tabs too difficult? Try these video lessons and learn fast
 
                Intro:       (Repeat 4 times)

1)-----------------------------------------------
2)-----------------------------------------------
3)-----------------------------------------------
4)-----------------------------------------------
5)-4-3-3-3-3--4-3-3-4-3-3--4-3-3-3-3--4-3-3-4-3-3
6)-2-1-1-1-1--2-1-1-2-1-1--2-1-1-1-1--2-1-1-2-1-1


Verse 1:     (Palm mute strings)

1)------------
2)------------
3)------------
4)------------
5)------------
6)-1-1-1-1-1-1

    Listen to the song to get the beat of the first verse.

Verse 2:

1)------------
2)------------
3)------------
4)------------
5)-3-3-3-3-3-3
6)-1-1-1-1-1-1

Chorus:

    After you hit the 5 and 6 string,a certain sound is made that
is accomplished by lightly setting your finger on
the 6th string directly above the 2nd fret bar.

5)-3-
6)-1-

    At one point in the song, this part comes up:

5)-4--9-10--4--9-10--4--9-10--4--9-10
6)-2--7-8---2--7-8---2--7-8---2--7-8

repeat 4x
            
Submit corrections


        Down With The Sickness 1 lessons Hard to play? Try these video lessons and learn fast Down With The Sickness 1 lessons
        
↑ Back to top | Tablatures and chords for acoustic guitar and electric guitar, ukulele, drums are parodies/interpretations of the original songs. You may use it for private study, scholarship, research or language learning purposes only