» » »

Disturbed - Deify Tabs

Artists:  A B C D E F G H I J K L M N O P Q R S T U V W X Y Z # 

Deify Tabs

(ver. 2) Click to play this song!
Disturbed
 Rating:
4/5 (4 votes)

 Deify lessons Tabs too difficult? Try these video lessons and learn fast
 
                Courtesy Manek D'Silva

Note: I've been playing for about 1 and a half yeaqrs, so this is my first tab...its
about 90% accurate, i think! Disturbed's an awesome band, Dan Donegan an awesome
guitarist... and ill try tabbing the other songs as well. Any corrections, suggestions,
The song has quite a simple structure.... im not sure about the fourth bar of the
bridge... please tell me if u know...

Samples:
E|-------------------------------------------------------------|
B|-------------------------------------------------------------|
G|-------------------------------------------------------------|
D|-------------------------------------------------------------|
A|-------------------------------------------------------------|
D|-------------------------------------------------------------|

Intro:
E|-------------------------------------------------------------|
B|-------------------------------------------------------------|
G|-------------------------------------------------------------|
D|-8-8--8-8--8-8--8-8--3-3-3-3-4-4--4-4--4-4--4-4--3-3-6-6-----|
A|-8-8--8-8--8-8--8-8--3-3-3-3-4-4--4-4--4-4--4-4--3-3-6-6-----|
D|-8-8--8-8--8-8--8-8--3-3-3-3-4-4--4-4--4-4--4-4--3-3-6-6-----|

E|-------------------------------------------------------------|
B|-------------------------------------------------------------|
G|-------------------------------------------------------------|
D|-4-4--4-4--4-4--4-4--3-3-3-3-1-1--1-1--6-6--6-6--10-10-10-10-|
A|-4-4--4-4--4-4--4-4--3-3-3-3-1-1--1-1--4-4--4-4--8--8--8--8--|
D|-4-4--4-4--4-4--4-4--3-3-3-3-1-1--1-1--6-6--6-6--10-10-10-10-|

Main Riff:
E|--------------------------------|     Repeat(x4)
B|--------------------------------|
G|--------------------------------|
D|-6-8-8-8----------8-----9-8-6-8-|
A|-6-8-8-8-9-8-6-8--8--8--9-8-6-8-|
D|-6-8-8-8-9-8-6-8--8--8--9-8-6-8-|


Verse:
E|-------------------------------------------------|    Repeat(x4)
B|-------------------------------------------------|
G|-------------------------------------------------|
D|-------------------------------------------------|
A|-1-1-1-1-1-1-2-2-2-2-----------------------------|
D|---------------------3-3-3-3-1-1-1-1-6-6-6-6-4-4-|

E|-------------------------------------------------|    Repeat(x3)
B|-------------------------------------------------|
G|-------------------------------------------------|
D|-8-8-8-8-8-8-9-9-9-9-3-3-3-3-1-1-1-1-6-6-6-6-4-4-|
A|-8-8-8-8-8-8-9-9-9-9-3-3-3-3-1-1-1-1-6-6-6-6-4-4-|
D|-8-8-8-8-8-8-9-9-9-9-3-3-3-3-1-1-1-1-6-6-6-6-4-4-|

E|-------------------------------------------------|
B|-------------------------------------------------|
G|-------------------------------------------------|
D|-8-8-8-8-8-8-9-9-9-9-3-3-3-3-1-1-1-1-6-6-6-6-3-3-|
A|-8-8-8-8-8-8-9-9-9-9-3-3-3-3-1-1-1-1-6-6-6-6-3-3-|
D|-8-8-8-8-8-8-9-9-9-9-3-3-3-3-1-1-1-1-6-6-6-6-3-3-|

Pre-Chorus:
E|-----------------------------| Repeat
B|-----------------------------|
G|-----------------------------|
D|-4----6----3--4--x-x-3--4----|
A|-4----6----3--4--x-x-3--4----|
D|-4----6----3--4--x-x-3--4----|

Chorus:
E|-------------------------------------------------------------|
B|-------------------------------------------------------------|
G|-------------------------------------------------------------|
D|-8-8--8-8--8-8--8-8--3-3-3-3-4-4--4-4--4-4--4-4--3-3-6-6-----|
A|-8-8--8-8--8-8--8-8--3-3-3-3-4-4--4-4--4-4--4-4--3-3-6-6-----|
D|-8-8--8-8--8-8--8-8--3-3-3-3-4-4--4-4--4-4--4-4--3-3-6-6-----|

E|-------------------------------------------------------------|
B|-------------------------------------------------------------|
G|-------------------------------------------------------------|
D|-4-4--4-4--4-4--4-4--3-3-3-3-1-1--1-1--6-6--6-6--10-10-10-10-|
A|-4-4--4-4--4-4--4-4--3-3-3-3-1-1--1-1--4-4--4-4--8--8--8--8--|
D|-4-4--4-4--4-4--4-4--3-3-3-3-1-1--1-1--6-6--6-6--10-10-10-10-|

Repeat:
Main Riff
Verse
Pre-Chorus
Chorus

Bridge:
E|---------------------------------|
B|---------------------------------|
G|---------------------------------|
D|-6/8-8-8-9-8-8-11-8-8-8-9-8-8-9-8|
A|---------------------------------|
D|---------------------------------|

E|---------------------------------|
B|---------------------------------|
G|---------------------------------|
D|-6/8-8-8-9-8-8-11-8-8-8-9-8-8-9~-|
A|---------------------------------|
D|---------------------------------|

E|---------------------------------|
B|---------------------------------|
G|---------------------------------|
D|-6/8-8-8-9-8-8-11-8-8-8-9-8-8-9-8|
A|---------------------------------|
D|---------------------------------|

E|------------------------------------------|
B|------------------------------------------|
G|------------------------------------------|
D|-11-11-11-15-11-11-15-11-9-9-9-15-9-9-12--|
A|------------------------------------------|
D|------------------------------------------|

Repeat with power chords...
E|---------------------------------|
B|---------------------------------|
G|---------------------------------|
D|---------------------------------|
A|-6/8-8-8-9-8-8-11-8-8-8-9-8-8-9-8|
D|-6/8-8-8-9-8-8-11-8-8-8-9-8-8-9-8| etc

Repeat:
Intro
~
Chorus
Main Riff (x3)

E|--------------------------------|--|
B|--------------------------------|--|
G|--------------------------------|--|
D|-6-8-8-8----------8-----9-8-6---|--|
A|-6-8-8-8-9-8-6-8--8--8--9-8-6---|--|
D|-6-8-8-8-9-8-6-8--8--8--9-8-6---|--|

THE END
            
Submit corrections


        Deify lessons Hard to play? Try these video lessons and learn fast Deify lessons
        
↑ Back to top | Tablatures and chords for acoustic guitar and electric guitar, ukulele, drums are parodies/interpretations of the original songs. You may use it for private study, scholarship, research or language learning purposes only