» » »

Disturbed - Bound Tabs

Artists:  A B C D E F G H I J K L M N O P Q R S T U V W X Y Z # 

Bound Tabs

(ver. 1) Click to play this song!
Disturbed
 Rating:
4/5 (4 votes)

 Bound lessons Tabs too difficult? Try these video lessons and learn fast
 
                
Tuning: Drop D, 1/2 Step Down (Db,Ab,Db,Gb,Bb,Eb)

INTRO:
|------------------------------------------------------------------|
|------------------------------------------------------------------|
|------------------------------------------------------------------|
|------------------------------------------------------------------|
|------------------------------------------------------------------|
|-3-3-3-0-0-0-2-2-2-5-5-5-5-5-5-5--3-3-3-0-0-0-2-2-2-5-5-5-2-2-5-5-|

|------------------------------------------------------------|
|------------------------------------------------------------|
|------------------------------------------------------------|
|------------------------------------------------------------|
|------------------------------------------------------------|
|-3-3-3-0-0-0-2-2-2-5-5-5-5-5-5-5--3-3-3-0-0-0-2-2-2-5-5-5-2-|

MAIN RIFF:
|------------------------------------------------------------------|
|------------------------------------------------------------------|
|------------------------------------------------------------------|
|-3-3-3-0-0-0-2-2-2-5-5-5-5-5-5-5--3-3-3-0-0-0-2-2-2-5-5-5-2-2-5-5-|
|-3-3-3-0-0-0-2-2-2-5-5-5-5-5-5-5--3-3-3-0-0-0-2-2-2-5-5-5-2-2-5-5-|
|-3-3-3-0-0-0-2-2-2-5-5-5-5-5-5-5--3-3-3-0-0-0-2-2-2-5-5-5-2-2-5-5-|

BRIDGE:
|------------------------------------------------|
|------------------------------------------------|
|------------------------------------------------|
|-2-/9--3-/10--5-5-3--2-/9--0-3-0-5-5-3--10-10-3-|
|-2-/9--3-/10--5-5-3--2-/9--0-3-0-5-5-3--10-10-3-|
|-2-/9--3-/10--5-5-3--2-/9--0-3-0-5-5-3--10-10-3-|

|-----------------------------------------|
|-----------------------------------------|
|-----------------------------------------|
|-2-/9--3-/10--5-5-3--2-/9--3-0--0--0-5-3-|
|-2-/9--3-/10--5-5-3--2-/9--3-0--0--0-5-3-|
|-2-/9--3-/10--5-5-3--2-/9--3-0--0--0-5-3-|

VERSE:
|----------------------------------------------------------------9^-|
|-------------------------------------------------------------------|
|-------------------------------------------------------------------|
|-------------------------------------------------------------------|
|---2---3----------2-------------3-3-----2---3---------2------------|
|-2---3---5-5-3--2---0-3-0-5-5-3-----3-2---3---5-5-3-2---3-0-0-0----|

|--------------------------------------------------------------------|
|--------------------------------------------------------------------|
|--------------------------------------------------------------------|
|----------------------------------------------------------------5-3-|
|---2---3----------2-------------3-3-----2---3---------2---------5-3-|
|-2---3---5-5-3--2---0-3-0-5-5-3-----3-2---3---5-5-3-2---3-0-0-0-5-3-|

CHORUS:
|--------------------------------------------------------------------|
|--------------------------------------------------------------------|
|---/9-9-7-----------------/9-9-7----------------/9-9-7--------------|
|-2--X-X-X---------------2--X-X-X--------------2--X-X-X--------------|
|-2-/7-7-5-0-0-0--0-0-0--2-/7-7-5-0--0--0-0-0--2-/7-7-5-0-0-0--0-0-0-|
|-2--------0-0-0--0-0-0--2--------0--0--0-0-0--2--------0-0-0--0-0-0-|
pm         . . .  . . .           .  .  . . .           . . .  . . .

|-------------|
|-------------|
|-------------|
|-7-7-7-7-7-9-|
|-5-5-5-5-5-9-|
|-5-5-5-5-5-9-|

CHORUS B:
|--------------------------------|
|--------------------------------|
|-12-12-12-12-12--11-11-11-11-11-|
|-10-10-10-10-10--10-10-10-10-10-|
|-10-10-10-10-10--10-10-10-10-10-|
|-10-10-10-10-10--10-10-10-10-10-|

MAIN RIFF FILL:
|------------------------------------------------------------------|
|------------------------------------------------------------------|
|------------------------------------------------------------------|
|----------------------------------3-3-3-0-0-0-2-2-2-5-5-5-2-2-5-5-|
|----------------------------------3-3-3-0-0-0-2-2-2-5-5-5-2-2-5-5-|
|-3-3-3-0-0-0-2-2-2-5-5-5-5-5-5-5--3-3-3-0-0-0-2-2-2-5-5-5-2-2-5-5-|

FILL:
|--------|
|--------|
|-9~~~~~-|
|--------|
|--------|
|--------|

INTERLUDE: (only palm mute first 4X through)
|---------------------------------|
|---------------------------------|
|---------------------------------|
|---------------------------------|
|-2-----------2-----------5-------|
|---3-2-0-2-3---3-2-0-2-3---3-2-0-|
pm  . . . . .   . . . . .   . . .

BRIDGE 2:
|-------------------------|    |------------|
|-------------------------|play|------------|
|-------------------------| 3X |------------|
|-2-2-2-/9--3-3-3-/9--3-3-|then|-2-2-2-/9-3-|
|-2-2-2-/9--3-3-3-/9--3-3-|    |-2-2-2-/9-3-|
|-2-2-2-/9--3-3-3-/9--3-3-|    |-2-2-2-/9-3-|

OUTRO:
|---|
|---|
|---|
|-2-|
|-2-|
|-2-|
            
Submit corrections


        Bound lessons Hard to play? Try these video lessons and learn fast Bound lessons
        
↑ Back to top | Tablatures and chords for acoustic guitar and electric guitar, ukulele, drums are parodies/interpretations of the original songs. You may use it for private study, scholarship, research or language learning purposes only