» » »

Distillers - Seneca Falls Tabs

Artists:  A B C D E F G H I J K L M N O P Q R S T U V W X Y Z # 

Seneca Falls Tabs

(ver. 3) Click to play this song!
Distillers
 Rating:
4/5 (4 votes)

 Seneca Falls lessons Tabs too difficult? Try these video lessons and learn fast
 
                My first tab :) a rad song :P

e|-------------------7-7-10-10-10-9-7------------------------------------|
B|-7--7--b9--7h9---------------------10-9-7---7-9-7-b9down-X3 then b9~~~~|
G|----------------9------------------------------------------------------|
D|-----------------------------------------------------------------------|
A|-----------------------------------------------------------------------|
E|-----------------------------------------------------------------------|


pre-verse/chorus: 
e|-------------| 
B|-------------| 
G|-9------11---| 
D|-9---7--11---|   Muck about with strumming
A|-7---7---9---| 
E|-----5-------| 

verse: 
e|-----------| 
B|-----------| 
G|-------11--|   Like the pre-verse just play around with the strumming
D|-2--7--11--|   Listen to the song over to get it perfect
A|-2--7---9--| 
E|-0--5------| 
            
Submit corrections


        Seneca Falls lessons Hard to play? Try these video lessons and learn fast Seneca Falls lessons
        
↑ Back to top | Tablatures and chords for acoustic guitar and electric guitar, ukulele, drums are parodies/interpretations of the original songs. You may use it for private study, scholarship, research or language learning purposes only