» » »

Distillers - Seneca Falls Tabs

Artists:  A B C D E F G H I J K L M N O P Q R S T U V W X Y Z # 

Seneca Falls Tabs

(ver. 1) Click to play this song!
Distillers
 Rating:
4/5 (4 votes)

 Seneca Falls lessons Tabs too difficult? Try these video lessons and learn fast
 
                Published by epitaph records

Intro
E-7--7-------------------4--7-10-10-10-9-7----------------------------------
B-7--7---9^---7h9p7h9p7--5------------------10-9-7---------12-------12------
G------------------------4-------------------------9-11^-9-----11^-9--11^-9-
D---------------------------------------------------------------------------
A---------------------------------------------------------------------------
E---------------------------------------------------------------------------

bridge
E--------------------------------------------
B-----pick slide---------------------------
G---------------------9----------9----------
D---------------------9---7-----9-----7----
A---------------------7---7-----7-----7----
E--------------------------5-----------5----
        Let these notes ring
Verse
E------------------------|------------------------------------------------
B------------------------|------------------------------------------------
G--9-9--999---9-9--999---|------------------------------------------------
D--9-9--999---9-9--999---|--x2---7-7--777---7-7--777---11-11--11 11 11----
A--7-7--777---7-7--777---|-------7-7--777---7-7--777----9--9---9  9  9----
E------------------------|-------5-5--555---5-5--555----------------------	
           Palm mute the whole verse

Bridge #2
E-----------------|------------------------------------------------------------------B-----------------|------------------------------------------------------------------G-----------------|------------------------------------------------------------------D--7--5------5--|-x2--7--5------7---5--9---------------------------------------------A--5--3--5--3---|-----5--3--5--5---3--7----------------------------------------------E---------3-------|-----------3------------------------------------------------------ Let them ring 


Intro       x1
Bridge#1    x1
Verse       x6
Bridge#2    x1
Bridge#1    x2
Verse       x10
            
Submit corrections


        Seneca Falls lessons Hard to play? Try these video lessons and learn fast Seneca Falls lessons
        
↑ Back to top | Tablatures and chords for acoustic guitar and electric guitar, ukulele, drums are parodies/interpretations of the original songs. You may use it for private study, scholarship, research or language learning purposes only