» » »

Distillers - I Am A Revenant Tabs

Artists:  A B C D E F G H I J K L M N O P Q R S T U V W X Y Z # 

I Am A Revenant Tabs

(ver. 3) Click to play this song!
Distillers
 Rating:
4/5 (4 votes)

 I Am A Revenant lessons Tabs too difficult? Try these video lessons and learn fast
 
                "(2)
there are some bits missing which i'll add later when i remeber how to play them


intro
e|---------------------------------------------------------------------------------|
B|---------------------------------------------------------------------------------|
G|---------4-0-2-0-2-4-2-0-2-0---0---0-2------------4b-0-2-0-2-4b-0-2b-0-2---------|
D|--2-4-5----------------------4---4-----5-4-2~-4-5------------------------4-2-----|
A|---------------------------------------------------------------------------------|
E|---------------------------------------------------------------------------------|

verse
e|---------0000---3333----2222-|
B|---------1111---3333----3333-|
G|---------0000---0000----2222-|
D|--2222---2222---0000----0000-|
A|--2222---3333---2222---------|
E|--0000----------3333---------|
pm___________ 

E|-----------------------------------------------------------------|
B|-----------------------------------------------------------------|
G|----------5555--------------------------5555------------7777-----|
D|--2222----5555----5555/4444----2222-----5555----5555----7777-----|
A|--2222----3333----5555/4444----2222-----3333----5555----5555-----|
E|--0000------------3333/2222----0000-------------3333-------------|
pm___________ 


e|---------------------------------------------
B|---------------------------------------------
G|---------4-0-2-0-2-4-2-0-2-0---0---0-2-------
D|--2-4-5----------------------4---4-----5-4-2~
A|---------------------------------------------
E|---------------------------------------------

chorus
e|-------------------------------------------------------------|
B|-------------------------------------------------------------|
G|--3333---------5555---------3333--------5x-5x----------------|
D|--3333---3333--5555--5555---3333--3333--5x-5x-5555-----------|
A|--1111---3333--3333--5555---1111--3333--3x-3x-5555-----------|
E|---------1111--------3333---------1111--------3333-----------|

bridge
e|---------0000---3333----2222-|
B|---------1111---3333----3333-|
G|---------0000---0000----2222-|
D|--2222---2222---0000----0000-|
A|--2222---3333---2222---------|
E|--0000----------3333---------|
pm___________ 

solo bit
e|--12---10--|
B|--12---10--|
G|-----------|
D|-----------|
A|-----------|
E|-----------|
"            
Submit corrections


        I Am A Revenant lessons Hard to play? Try these video lessons and learn fast I Am A Revenant lessons
        
↑ Back to top | Tablatures and chords for acoustic guitar and electric guitar, ukulele, drums are parodies/interpretations of the original songs. You may use it for private study, scholarship, research or language learning purposes only