» » »

Distillers - I Am A Revenant Tabs

Artists:  A B C D E F G H I J K L M N O P Q R S T U V W X Y Z # 

I Am A Revenant Tabs

(ver. 2) Click to play this song!
Distillers
 Rating:
4/5 (4 votes)

 I Am A Revenant lessons Tabs too difficult? Try these video lessons and learn fast
 
                "(1)
~ = Vibrato
... = Palm mute


(Pickslide at the start)

---------------------------------------------------
---------------------------------------------------
-----0-0-4--0-2-0-2---2-4-2-0-2-0---2-0---2-0------
-2-4----------------4-------------4-----4-----4-2--
---------------------------------------------------
---------------------------------------------------


---------------------------------------------------
---------------------------------------------------
-----0-0-4--0-2-0-2---2-4~-2~-0--2-0---------------
-2-4----------------4----------------4-2~~~--------
---------------------------------------------------
---------------------------------------------------



Verse:

Another year has passed and I'm alright........
---------------------------------------------------
---------------------------------------------------
-----------5-5-5-5-----------7-7-7-7---------------
--2-2-2-2--5-5-5-5--5-5-5-5--7-7-7-7---------------
--2-2-2-2--3-3-3-3--5-5-5-5--5-5-5-5---------------
--0-0-0-0-----------3-3-3-3------------------------
 ...........................



Do you remember the rain? I remember the hate....
---------------------------------------------------
---------------------------------------------------
-----------5-5-5-5-----------7-7-7-7---------------
--2-2-2-2--5-5-5-5--5-5-5-5--7-7-7-7---------------
--2-2-2-2--3-3-3-3--5-5-5-5--5-5-5-5---------------
--0-0-0-0-----------3-3-3-3------------------------


(Play Intro riff again)

Verse 2:

You say I got karma to collect I'm in my grave and.....
---------------------------------------------------
---------------------------------------------------
-----------5-5-5-5-----------7-7-7-7---------------
--2-2-2-2--5-5-5-5--5-5-5-5--7-7-7-7---------------
--2-2-2-2--3-3-3-3--5-5-5-5--5-5-5-5---------------
--0-0-0-0-----------3-3-3-3------------------------
 ...........................

---------------------------------------------------
---------------------------------------------------
-----------5-5-5-5-----------7-7-7-7---------------
--2-2-2-2--5-5-5-5--5-5-5-5--7-7-7-7---------------
--2-2-2-2--3-3-3-3--5-5-5-5--5-5-5-5---------------
--0-0-0-0-----------3-3-3-3------------------------

Chorus:

We are the Revenants........
---------------------------------------------------
---------------------------------------------------
--3-3-3-3-----------5-5-5-5------------------------
--3-3-3-3--3-3-3-3--5-5-5-5--5-5-5-5---------------
--1-1-1-1--3-3-3-3--3-3-3-3--5-5-5-5---------------
-----------1-1-1-1-----------3-3-3-3---------------

Keep playing Chorus a couple of times

---------------------------------------------------
---------------------------------------------------
--7-7-7-7-----------5-5-5-5------------------------
--7-7-7-7--2-2-2-2--5-5-5-5--5-5-5-5---------------
--5-5-5-5--2-2-2-2--3-3-3-3--5-5-5-5---------------
-----------0-0-0-0-----------3-3-3-3---------------


--12-12-12-12--10-10-10-10---12-12-12-12--10-10-10-
---------------------------------------------------
---------------------------------------------------
---------------------------------------------------
---------------------------------------------------
---------------------------------------------------


--12-12-12-12-10-10-10--12-12-12--10-10-10-----------
--------------------------------------------12-12-10-
-----------------------------------------------------
-----------------------------------------------------
-----------------------------------------------------
-----------------------------------------------------

(Pickslide)


---------------------------------------------------
---------------------------------------------------
--3-3-3-3-----------5-5-5-5------------------------
--3-3-3-3--3-3-3-3--5-5-5-5--5-5-5-5---------------
--1-1-1-1--3-3-3-3--3-3-3-3--5-5-5-5---------------
-----------1-1-1-1-----------3-3-3-3---------------

---------------------------------------------------
---------------------------------------------------
--3-3-3-3-----------5-5-5-5------------------------
--3-3-3-3--3-3-3-3--5-5-5-5--5-5-5-5---------------
--1-1-1-1--3-3-3-3--3-3-3-3--5-5-5-5---------------
-----------1-1-1-1-----------3-3-3-3---------------



Bridge:

Another year has passed and I'm alright...
---------------------------------------------------
---------------------------------------------------
-----------5-5-5-5-----------7-7-7-7---------------
--2-2-2-2--5-5-5-5--5-5-5-5--7-7-7-7---------------
--2-2-2-2--3-3-3-3--5-5-5-5--5-5-5-5---------------
--0-0-0-0-----------3-3-3-3------------------------
 .....................................

---------------------------------------------------
---------------------------------------------------
-----------5-5-5-5-----------7-7-7-7---------------
--2-2-2-2--5-5-5-5--5-5-5-5--7-7-7-7---------------
--2-2-2-2--3-3-3-3--5-5-5-5--5-5-5-5---------------
--0-0-0-0-----------3-3-3-3------------------------
 ....................................


Run into the night.......
---------------------------------------------------
---------------------------------------------------
-----------5-5-5-5-----------7-7-7-7---------------
--2-2-2-2--5-5-5-5--5-5-5-5--7-7-7-7---------------
--2-2-2-2--3-3-3-3--5-5-5-5--5-5-5-5---------------
--0-0-0-0-----------3-3-3-3------------------------


That's it.
Best Distillers song out, please rate.
"            
Submit corrections


        I Am A Revenant lessons Hard to play? Try these video lessons and learn fast I Am A Revenant lessons
        
↑ Back to top | Tablatures and chords for acoustic guitar and electric guitar, ukulele, drums are parodies/interpretations of the original songs. You may use it for private study, scholarship, research or language learning purposes only