» » »

Distillers - Hate Me Tabs

Artists:  A B C D E F G H I J K L M N O P Q R S T U V W X Y Z # 

Hate Me Tabs

(ver. 2) Click to play this song!
Distillers
 Rating:
4/5 (4 votes)

 Hate Me lessons Tabs too difficult? Try these video lessons and learn fast
 
                listen to the song to work out the rhythm etc
VERSE:
e------------------------------------------------------------------------------------
b-----------------------------------------------------------------------------------
g----------9-----8----9----------------------9----8----9----------10----9--------
d-----7----9-----8----9----8----10-----7-----9----8----9----8-----10----9--------
a-----7----7-----6----7----8----10-----7-----7----6----7----8------8----7--------
e-----5--------------------6-----8-----5--------------------6------------------
CHORUS:

e---------------------------------------------------------------------
b---------------------------------------------------------------------
g--------------6-----9----8---------------------------------------------
d---6----9-----6-----9----8------------------------------------------------
a---6----9-----4-----7----6-------------------------------------------------
e---4----7---------------------------------------------------------------
            
Submit corrections


        Hate Me lessons Hard to play? Try these video lessons and learn fast Hate Me lessons
        
↑ Back to top | Tablatures and chords for acoustic guitar and electric guitar, ukulele, drums are parodies/interpretations of the original songs. You may use it for private study, scholarship, research or language learning purposes only