» » »

Distillers - Hate Me Tabs

Artists:  A B C D E F G H I J K L M N O P Q R S T U V W X Y Z # 

Hate Me Tabs

(ver. 1) Click to play this song!
Distillers
 Rating:
3.1/5 (7 votes)

 Hate Me lessons Tabs too difficult? Try these video lessons and learn fast
 
                these are just the power chords you play... i didnt write
how many times to play each one, cause i'm lazy about cr*p 
like that. it shouldnt be hard to figure out.

VERSE:
e ---------------------------------------------- 
B ---------------------------------------------- 
G ----9--8--9----------------9--8--9-----10--9-- 
D -7--9--8--9--8--10--10--7--9--8--9--8--10--9-- 
A -7--7--6--7--8--10--10--7--7--6--7--8---8--7-- 
E -5-----------6---8---8--5-----------6---------

CHORUS:
e ---------------- 
B ---------------- 
G -------6--9--8-- 
D -6--9--6--9--8-- 
A -6--9--4--7--6-- 
E -4--7----------- 


^..^<
            
Submit corrections


        Hate Me lessons Hard to play? Try these video lessons and learn fast Hate Me lessons
        
↑ Back to top | Tablatures and chords for acoustic guitar and electric guitar, ukulele, drums are parodies/interpretations of the original songs. You may use it for private study, scholarship, research or language learning purposes only