» » »

Distillers - Bullet & The Bullseye Tabs

Artists:  A B C D E F G H I J K L M N O P Q R S T U V W X Y Z # 

Bullet & The Bullseye Tabs

(ver. 1) Click to play this song!
Distillers
 Rating:
4/5 (4 votes)

 Bullet & The Bullseye lessons Tabs too difficult? Try these video lessons and learn fast
 
                this is 100% correct



intro/verse

E]---------------------------
B]---------------------------
G]---10101010/9999/10/9------
D]---10101010/9999/10/9---77-
A]----8-8-8-8/7777/-8/7---77-  do not strum! move the plectrum up down quickly.
E]------------------------55-

chorus
E]-------------------------------
B]-------------------------------
G]----------77-----------6-------strum normally
D]---444----77--7777-----6---5---
A]---444----55--7777-----4---5---
E]---222--------5555---------3---

outro
E]-------------------------------------------
B]-------------------------------------------
G]---------77------------6----5----4---------
D]---444---77----7777----6----5----4------4--
A]---444---55----7777----4----3----2------4--
E]---222---------5555---------------------2--
            
Submit corrections


        Bullet & The Bullseye lessons Hard to play? Try these video lessons and learn fast Bullet & The Bullseye lessons
        
↑ Back to top | Tablatures and chords for acoustic guitar and electric guitar, ukulele, drums are parodies/interpretations of the original songs. You may use it for private study, scholarship, research or language learning purposes only