» » »

Distillers - Bullet & The Bullseye Tabs

Artists:  A B C D E F G H I J K L M N O P Q R S T U V W X Y Z # 

Bullet & The Bullseye Tabs

(ver. 2) Click to play this song!
Distillers
 Rating:
4/5 (4 votes)

 Bullet & The Bullseye lessons Tabs too difficult? Try these video lessons and learn fast
 
                Band Name: the distillers
Song Name: bullet and the bulls eye
tuning: standard (E,A,D,B,G,E)

heres a rough idea, maybe some mistakes but it works good.

intro/verse
E]-------------------------------------------------------
B]-------------------------------------------------------
G]---10----9---10---9-------10-----9----10----9----------
D]---10----9---10---9---7---10-----9----10----9----7-----
A]----8----7----8---7---7----8-----7-----8----7----7-----
E]----------------------5--------------------------5-----

chorus
E]---------------------------
B]---------------------------
G]--------7----------6-------
D]---4----7----7-----6---5---
A]---4----5----7-----4---5---
E]---2---------5---------3---

outro
E]-------------------------------------
B]-------------------------------------
G]-------7---------6----5----4---------
D]---4---7----7----6----5----4------4--
A]---4---5----7----4----3----2------4--
E]---2--------5---------------------2--
            
Submit corrections


        Bullet & The Bullseye lessons Hard to play? Try these video lessons and learn fast Bullet & The Bullseye lessons
        
↑ Back to top | Tablatures and chords for acoustic guitar and electric guitar, ukulele, drums are parodies/interpretations of the original songs. You may use it for private study, scholarship, research or language learning purposes only