Home » D » Dispatch »

Dispatch - Two Coins Tabs

Artists:  A B C D E F G H I J K L M N O P Q R S T U V W X Y Z # 

Two Coins Tabs

(ver. 3) Click to play this song!
Dispatch
Standard Tuning (Eadgbe)

Intro
E |---------------------5---3---3--------------------------|
B |---------------------7---5---3--------------------------|
G |--------4h5p4--------7---5---4----3p0-0-3-0-------------|
D |----5----------7-5---7---5---5--------------3-0---------|
A |---------------------5---3---5--------------------------|
E |-----------------------------3--------------------------|x1
Verse
E |---------------------5---3---3--------------------------|
B |---------------------7---5---3--------------------------|
G |--------4h5p4--------7---5---4--------------------------|
D |----5----------7-5---7---5---5--------------------------|
A |---------------------5---3---5--------------------------|
E |-----------------------------3--------------------------|x9

Chorus
E |----5----10----5----3-----------------------------------|
B |----7----12----7----5-----------------------------------|
G |----7----12----7----5-----------------------------------|
D |----7----12----7----5-----------------------------------|
A |----5----10----5----3-----------------------------------|
E |--------------------------------------------------------|
     (in the second chorus it does this twice)

right before the second chorus, a 2nd guitar joins in and plays this over the verse:

E |----------------------|------------------------------|-------------------------|
B |----------------------|------------------------------|-------------------------|
G |----------------------|------------------------------|-------------------------|
D |--------------5-2-0---|-------------5----------------|--------------5-2-0------|
A |---------2-3-5--------|--------2-3-5--3-2---0h2-0----|---------2-3-5-----------|
E |-3-3-3-3--------------|-3-3-3-3----------------------|-3-3-3-3-----------------|

E |----------------------|
B |----------------------|
G |----------------------|
D |---------------5-2-0--|
A |----------2-3-5-------|
E |--3-3-3-3-------------|

in the verse after the second chorus, they play the intro part once. so heres the order of the song:
Intro x1
Verse x9
Chorus x1
Verse x5
Intro x1
Verse x1 (very lightly)

thats it. listen to the song for strumming patterns.
            
Submit corrections

↑ Back to top | Tablatures and chords for acoustic guitar and electric guitar, ukulele, drums are parodies/interpretations of the original songs. You may use it for private study, scholarship, research or language learning purposes only