Home » D » Dispatch »

Dispatch - Two Coins Tabs

Artists:  A B C D E F G H I J K L M N O P Q R S T U V W X Y Z # 

Two Coins Tabs

(ver. 2) Click to play this song!
Dispatch
Dispatch (formerly One Fell Swoop)

Two Coins

Standard Tuning


Intro

E---------------0--0-----------------------------------0--0------
B---------------3--3--5-3------------------------------3--3--5-3-
G--0--4/5/4^0---2--2--5-4--3^0-0-3^-0-------0--4/5/4---2--2--5-4-
D-------------0-0--0--5-5-------------3^0------------0-0--0--5-5-
A---------------------3-5------------------------------------3-5-
E-----------------------3--------------------------------------3-

Intro with out the middle lick is played during verses of the song

Bridge

E-----------7-7-7-7---7--7---------------------------------------
B--7-7-7-7--8-8-8-8---8--8--7-7-7--5-5-5-5-5---------------------
G--7-7-7-7--9-9-9-9---7--7--7-7-7--5-5-5-5-5---------------------
D--7-7-7-7--9-9-9-9---9--9--7-7-7--5-5-5-5-5---------------------
A--5-5-5-5--7-7-7-7--10-10--5-5-5--3-3-3-3-3---------------------
E----------------------------------------------------------------


Lyrics

I stick loniliness your lips and the two coins of your eyes
into my pockets, yeah ah
well the train skates into port henry late sunday
sometimes whem im riding high, feeling fine, you know there's something
troubling you, troubling in my mind
so i reach into my pocket for some small change
i reach into my pocket for some small change, 

(bridge)

I want bones like iron, blood like mercury
so i can tell you when im rising when im sinking in,
im sinking in (3xs)

2nd guitar part

-------------------------------- 
--------------------------------
------------------0-------------
----------------0---------------
------------2-3-----3-(2)-------
---3-3-3-3----------------------

(bridge)

Gonna take it to the people yeah 'eh  (4xs)

hey lets drink from the cup
share some love
go ahead and laugh
cause it dont cost much
no no it dont dont cost much

(intro riff)
            
Submit corrections

↑ Back to top | Tablatures and chords for acoustic guitar and electric guitar, ukulele, drums are parodies/interpretations of the original songs. You may use it for private study, scholarship, research or language learning purposes only