Home » D » Disagree »

Disagree - Suicide Note Tabs

Artists:  A B C D E F G H I J K L M N O P Q R S T U V W X Y Z # 

Suicide Note Tabs

(ver. 1) Click to play this song!
Disagree
(Intro)

e|-----------------------------------------------|
B|--2-2-2-2-2h3-3-3-3-3-3p2-2-2-2-2-2h3-3-3-3-3--|
G|-2-2-2-2-2---2-2-2-2-2---2-2-2-2-2---2-2-2-2---|
D|-----------------------------------------------|
A|-----------------------------------------------|
E|-----------------------------------------------|

e|--5-5-5-5-5/7--7-7-7-5--9-9-9-9--10-10-10-10p9--9-|
B|--------------------------------------------------|
G|-4-4-4-4------7-7-7-7--9-9-9-9--9--9--9--9----9---|
D|--------------------------------------------------|
A|--------------------------------------------------|
E|--------------------------------------------------|

e|--10-10-10p9--9--9---10-10-10p9--9--9--|
B|---------------------------------------|
G|-9--9--9-----9--9---9--9--9-----9--9---|
D|---------------------------------------|
A|---------------------------------------|
E|---------------------------------------|

      
e|------5--5--5--5------5--5--5--5------5--5--5--5------5--5--5--5-|
B|-----------------------------------------------------------------|
G|-6h7-7--7--7--7--6/7-7--7--7--7--6/7-7--7--6--6--6/7-7--7--6--6--|
D|-----------------------------------------------------------------|
A|-----------------------------------------------------------------|
E|-----------------------------------------------------------------|

  (Drum roll)
e|--7--7--7/5--5--7--7--7/5--5--9--9--9--9/10--10--10--10--10--|
B|-------------------------------------------------------------|
G|-7--7--7----7--7--7--7----7--7--7--7--7-----7---7---7---7----|
D|-------------------------------------------------------------|
A|-------------------------------------------------------------|
E|-------------------------------------------------------------|

e|--9/10--10--10/9--9--9/10--9--7--7--7--7--5--5--5--5---------|
B|-------------------------------------------------------------|
G|-7-----7---7-----7--7-----7--7--7--7--7--7--7--7--7----------|
D|-------------------------------------------------------------|
A|-------------------------------------------------------------|
E|-------------------------------------------------------------|

   During the drum roll another guitar plays this
e|--------------|
B|--------------|
G|--------------|
D|--2--4--5--7--|
A|--------------|
E|--------------|
            
Submit corrections

↑ Back to top | Tablatures and chords for acoustic guitar and electric guitar, ukulele, drums are parodies/interpretations of the original songs. You may use it for private study, scholarship, research or language learning purposes only