Home » D » Dirty Heads »

Dirty Heads - Thats All I Need Bass

Artists:  A B C D E F G H I J K L M N O P Q R S T U V W X Y Z # 

Thats All I Need Bass

(ver. 1) Click to play this song!
Dirty Heads
[Intro, Verse, chorus, outro] (This is the entire song)
 
G|---------------------------------------------------------------------------|
D|--------4*-4---------------------------------------------------------------|
A|----4-7------7-4-5-5------4----------4-5-5---------------------------------|
E|--5-----------------5---5---0-2--2-0------5--------------------------------|
 
G|---------------------------------------------------------------------------|
D|---------------------------------------------------------------------------|
A|---------------------------------------------------------------------------|
E|---------------------------------------------------------------------------|
 
 
[Breakdown with trumpet]x2
 
G|---------------------------------------------------------------------------|
D|----------4----------------------------------------------------------------|
A|---------4----5-5-5-5-5---4-4-4-4-4------2-4-5-5-5-5-5---------------------|
E|-5-5-5-5---------------5------------2--2---------------5-------------------|
 
G|---------------------------------------------------------------------------|
D|---------------------------------------------------------------------------|
A|---------------------------------------------------------------------------|
E|---------------------------------------------------------------------------|
            
Submit corrections

↑ Back to top | Tablatures and chords for acoustic guitar and electric guitar, ukulele, drums are parodies/interpretations of the original songs. You may use it for private study, scholarship, research or language learning purposes only