Home » D » Dion »

Dion - The Wanderer Tabs

Artists:  A B C D E F G H I J K L M N O P Q R S T U V W X Y Z # 

The Wanderer Tabs

(ver. 2) Click to play this song!
Dion
Tuning: E

Riff (Played in the chorus)

e|--------------------|
B|-----5-----3--------|
G|---6-----4----------|
D|-7-----5-------4-7--|
A|-------------5------|
E|--------------------|

Solo

e|---------------------------------------------------------------------------|
B|-10-10-10-10-10-10-10-10b-10-7h10-------10b-10b-10b-10-7h10----------------|
G|----------------------------------9p7-7---------------------9p7-7----------|
D|---------------------------------------------------------------------------|
A|---------------------------------------------------------------------------|
E|---------------------------------------------------------------------------|

e|---------------------------------------------------------------------------|
B|---------------------------------------------------------------------------|
G|-7-7b-7b-7b-7b-7--7-9b-9b-9b-9b-9p7--9b-9b-9b-9-7b-7b-7b-7-----------------|
D|-----------------------------------------------------------7b-7b-7b-7------|
A|---------------------------------------------------------------------------|
E|---------------------------------------------------------------------------|

e|--------------------|
B|--------------------|
G|--------------------|
D|-7b-7b-7b-7---------|
A|--------------------|
E|--------------------|            
Submit corrections

↑ Back to top | Tablatures and chords for acoustic guitar and electric guitar, ukulele, drums are parodies/interpretations of the original songs. You may use it for private study, scholarship, research or language learning purposes only