» » »

Dierks Bentley - What The Hell Did I Say Tabs

Artists:  A B C D E F G H I J K L M N O P Q R S T U V W X Y Z # 

What The Hell Did I Say Tabs

(ver. 1) Click to play this song!
Dierks Bentley
 Rating:
4.3/5 (15 votes)

 What The Hell Did I Say  lessons Tabs too difficult? Try these video lessons and learn fast
 
                [Intro]
e|----8-------------------------10----------8-----------------------8--------|
B|------------10------------6-------------------10--------8-----10-------10--|
G|---------------------------------------------------------------------------|
D|---------------------------------------------------------------------------|
A|---------------------------------------------------------------------------|
E|---------------------------------------------------------------------------|

e|----8---------------------10--------8--------------------------------------|
B|------------10-------6-------------------10------8-----10-----6------------|
G|--------------------------------------------------------------------7------|
D|---------------------------------------------------------------------------|
A|---------------------------------------------------------------------------|
E|---------------------------------------------------------------------------|            
Submit corrections


        What The Hell Did I Say  lessons Hard to play? Try these video lessons and learn fast What The Hell Did I Say  lessons
        
↑ Back to top | Tablatures and chords for acoustic guitar and electric guitar, ukulele, drums are parodies/interpretations of the original songs. You may use it for private study, scholarship, research or language learning purposes only