Home » D » Dierks Bentley »

Dierks Bentley - My Last Name Tabs

Artists:  A B C D E F G H I J K L M N O P Q R S T U V W X Y Z # 

My Last Name Tabs

(ver. 1) Click to play this song!
Dierks Bentley
 Rating:
4/5 (4 votes)
                Dierks Bentley: My Last Name 
Intro: The first chord is strummed towards the bass notes.
Chorus: All chords Strummed.
This tab is through the first verse.
 
D                       G           A
2---------0h2-------------------------------------
3------3--------3---------------3---------2h3-2---
2----2---2---------2----------0---------2-------2-
0--0----------0------0------0---------2-----------
--------------------------2---------0-------------
------------------------3-------------------------
I learned....
D                    G          A                       
------2--------2----------------------------------                                                       
----3---3-------3------------3--------2h3-2-------       
--2----------2----2--------0--------2-------2-----
0----------0-------------0--------2---------------                     
-----------------------2--------0-----------------                                                 
---------------------3----------------------------                                           
Some bully...
D         D/F#      G        A             Bb+
----2---------------------------------------------
------3---------3---------3------3---------3------
--2-----2-----2---------0----------2-----3--------
0-----------0------------------2-------0----------
----------------------2------0-------1------------
----------2---------3-----------------------------
So I had to...
Bm      A        G           A
-----------------------------------0----- 
------3-------2--------3-------------2---
----4-------2--------0---0-------2-------
--4-------2--------------------2---------
2-------0----------2---------0-----------
-----------------3-----------------------
It's my last name...
G          D/F#     Em7            Asus4
-----------------------------------------
------3----------3----------3------3-----
----0---0------2----------0---0------2---
-------------0--------2/4-------4------2-
--2-------------------------------------0
3----------2--------0--------------------
            
Submit corrections

↑ Back to top | Tablatures and chords for acoustic guitar and electric guitar, ukulele, drums are parodies/interpretations of the original songs. You may use it for private study, scholarship, research or language learning purposes only