» » »

Dierks Bentley - Trying To Stop Your Leaving Tabs

Artists:  A B C D E F G H I J K L M N O P Q R S T U V W X Y Z # 

Trying To Stop Your Leaving Tabs

(ver. 3) Click to play this song!
Dierks Bentley
 Rating:
4/5 (4 votes)

 Trying To Stop Your Leaving lessons Tabs too difficult? Try these video lessons and learn fast
 
                Dierks Bentley-Trying to Stop Your Leaving
Album-

This is just the lead.  The chords have been tabbed elsewhere.

Capo 3-Notes relative to this

Intro
e--0--0--0--0--0---------------
b--5--5--5--4--0--0--0---------
g-----------------1--2/4-------
d------------------------------
a------------------------------
e------------------------------

let all the open notes ring

Verse 2 fill:
After he sings But the river keeps running, don't even know that I'm around play

e-------0--0-0----------------
b--0----0--4/9--------------
g--4h6-----------------------
d----------------------------
a----------------------------
e----------------------------
hold the 4 for a second before sliding up to the 9 


Chorus:

He plays this underneath the chords after the line
Girl that's kind of the way I'm feeling

e-0--0--0---0---0---0-----0---0--0--0------
b-5--5--5---7---9---9/10--9---7--5--5------
g------------------------------------------
d------------------------------------------
a------------------------------------------
e------------------------------------------

Note this is not the part played by the acoustic in the 1st chorus.  It's similar though.


Bridge:

Train's a comin
e--------0-----------------0--------
b----------0------------0-----------
g-----1-------1------2--------------
d--2-----------------2--------------
a--2-----------------0--------------
e-----------------------------------

River's running
e--------0-----------------0--------
b-----------0--------------0--------
g-----1--------1--------2-----------
d--2-----------------2--------------
a--2-----------------0--------------
e-----------------------------------

Train's a coming             river's running
e-----------------0--0--0--0------------------0--0--0--0---
b-----------------5--5--4--0------------------5--5--4--0---
g----------------------------------------------------------
d----------------------------------------------------------
a----------------------------------------------------------
e----------------------------------------------------------

Pain's a coming              Tears are running
e----------------0--0--0--0------0-0--0--0--0--0--0--------
b----------------5--5--4--0h4h5--5/7--7--7--5--4--4h5------
g----------------------------------------------------------
d----------------------------------------------------------
a----------------------------------------------------------
e----------------------------------------------------------

The chorus riff changes in the last chorus, but it's a close variation on what I posted
above.  You should be able to figure it out pretty easily by going off of that.  
            
Submit corrections


        Trying To Stop Your Leaving lessons Hard to play? Try these video lessons and learn fast Trying To Stop Your Leaving lessons
        
↑ Back to top | Tablatures and chords for acoustic guitar and electric guitar, ukulele, drums are parodies/interpretations of the original songs. You may use it for private study, scholarship, research or language learning purposes only