» » »

Diecast - Nothing I Could Say Tabs

Artists:  A B C D E F G H I J K L M N O P Q R S T U V W X Y Z # 

Nothing I Could Say Tabs

(ver. 2) Click to play this song!
Diecast
 Rating:
3.7/5 (6 votes)

 Nothing I Could Say lessons Tabs too difficult? Try these video lessons and learn fast
 
                DIECAST - NOTHING I COULD SAY

Tuning C G C F A D

Intro: Dist w/ reverb
Guitar 1
d|------------------|-------------------|
A|------------------|-------------------|
F|------------------|-------------------|
C|---------8--------|---------8-8h10----|
G|--0h8h10---8h10---|--0h8h10-----------|
C|------------------|-------------------|

Intro: Dist
Guitar 2:
d|-------------------------------------|
A|-------------------------------------|
F|-------------------------------------|
C|-------------------------------------|
G|--111111-3333333-55555555------------|
C|--111111-3333333-55555555------------|

Verse:
d|-----------------------------------------|
A|-----------------------------------------|
F|-----------------------------------------|
C|-----------------------------------------|
G|--0-0---0-0----6-6--------3--------------|
C|--0-0---0-0----6-6----0h3---5-0-3-0-3h5--|

Pre-Chorus:
d|-------------------------------------|
A|-------------------------------------|
F|--------8-8-8-7-7--------------------|
C|--5555--x-x-x-x-x--------------------|
G|--3333--6-6-6-5-5---6666666-11111----|
C|--------------------6666666-11111----|

Fill:
d|-------------------------------------|
A|-------------------------------------|
F|-00-3-3-3h5--------------------------|
C|-------------------------------------|
G|-------------------------------------|
C|-------------------------------------|
pm...

Chorus:
d|----------------------------------------|
A|----------------------------------------|
F|--------3-3-3-3--5-5-5-5-5--00-3-3-3h5--|
C|--------3-3-3-3--5-5-5-5-5--------------|
G|--6666--1-1-1-1--3-3-3-3-3--------------|
C|--6666----------------------------------|

Breakdown: 
d|-------------------------------------|
A|-------------------------------------|
F|-------------------------------------|
C|-------------------------------------|
G|--------1----------------------------|
C|--0h3h5---3h5------------------------|

Heavy Breakdown
d|-----------------------------------|
A|-----------------------------------|
F|-----------------------------------|
C|---------3-------------------------|
G|--0h3h5--1--3h5--------------------|
C|--0h3h5-----3h5--------------------|

Interlude: both guitars
d|-------------------------------------|
A|-------------------------------------|
F|-------------------------------------|
C|-------------------------------------|
G|-111111-333333-5555555---------------|
C|-111111-333333-5555555---------------|

Interlude part 2:
d|-------------------------------------|
A|-------------------------------------|
F|-------------------------------------|
C|-------------------------------------|
G|-1-1-1~~--3-3-3~----5555555----------|
C|-1-1-1~~--3-3-3~----5555555----------|
pm                   ........
            
Submit corrections


        Nothing I Could Say lessons Hard to play? Try these video lessons and learn fast Nothing I Could Say lessons
        
↑ Back to top | Tablatures and chords for acoustic guitar and electric guitar, ukulele, drums are parodies/interpretations of the original songs. You may use it for private study, scholarship, research or language learning purposes only