» » »

Diecast - Fade Away Tabs

Artists:  A B C D E F G H I J K L M N O P Q R S T U V W X Y Z # 

Fade Away Tabs

(ver. 1) Click to play this song!
Diecast
 Rating:
4/5 (4 votes)

 Fade Away lessons Tabs too difficult? Try these video lessons and learn fast
 
                

p=pull-off
*=pinch harmonic
s=slide
h=hammer-on


beginning & verses:
D|-----------------------------------------------------------------|
A|-----------------------------------------------------------------|
F|-----------------------------------------------------------------|
C|--------7---7h8---7---5---7-8-7-5-7-------7---7h8-7-8-8--5-5-----|
G|--------5---5-----5---5---5-5-5-5-5-------5---5---5-5-5--5-5-----|
C|--000-----0-----0---0---0-----------000-----0--------------------|

intro:
D|----------------------------------------10-8-----------|
A|-----------------------------8-11-10-11------11-10-----|
F|------3p2p0h2--7-7-9-10-9-10---------------------------|
C|--0----------------------------------------------------|
G|-------------------------------------------------------|
C|-------------------------------------------------------|

D|-17p13p10-17p13p10-17p13p10-17p13p10-15p12p8-15p12p8-15p12p8-15p12p8---|
A|-----------------------------------------------------------------------|
F|-----------------------------------------------------------------------|
C|-----------------------------------------------------------------------|
G|-----------------------------------------------------------------------|
C|-----------------------------------------------------------------------|

D|--15-13-12-13-12-10-12-10-8-10-8----10---------------------------------|
A|---------------------------------10------------------------------------|
F|-----------------------------------------------------------------------|
C|-----------------------------------------------------------------------|
G|-----------------------------------------------------------------------|
C|-----------------------------------------------------------------------|
chorus:
D|-------------------------------------------------------------------------|
A|-------------------------------------------------------------------------|
F|-------------------------------------------------------------------------|
C|-0-0-0-2-2-2-3-3-3-0-0-0-10-10-10-10------10-------7---------------------|
G|-0-0-0-2-2-2-3-3-3-0-0-0-10-10-10-10----8----8---5---5-------------------|
C|-0-0-0-2-2-2-3-3-3-0-0-0-10-10-10-10--8--------5-------------------------|

D|---------------------------------------------------------|
A|---------------------------------------------------------|
F|---------------------------------------------------------|
C|-0-0-0-2-2-2-3-3-3-0-0-0-10-10-10-10-8-8-8-8-5-5-5-5-----|
G|-0-0-0-2-2-2-3-3-3-0-0-0-10-10-10-10-8-8-8-8-5-5-5-5-----|
C|-0-0-0-2-2-2-3-3-3-0-0-0-10-10-10-10-8-8-8-8-5-5-5-5-----|

Solo:

D|-----1-----1---------------------------------------------------|
A|-----3-----3-----3-1-----1------------1-----1-----1s15-16*-----|
F|-----2-----2---------3-2---3-2-0------0-----0------------------|
C|-0-0-0-0-0-0-0-0----------------------2-----2------------------|
G|-0-0-0-0-0-0-0-0------------------3-3-3-3-3-3-3-3--------------|
C|-0-0-0-0-0-0-0-0-----------------------------------------------|


D|-----------------------------------------------------|
A|-----3-----3-3-3-5-5-5------2-2-2--------------------|
F|-----3-----3-3-3-5-5-5------2-2-2--------------------|
C|-----3-----3-3-3-5-5-5------2-2-2--------------------|
G|-1-1-1---1-1-1-1-3-3-3--0-0--------------------------|
C|-----------------------------------------------------|
            
Submit corrections


        Fade Away lessons Hard to play? Try these video lessons and learn fast Fade Away lessons
        
↑ Back to top | Tablatures and chords for acoustic guitar and electric guitar, ukulele, drums are parodies/interpretations of the original songs. You may use it for private study, scholarship, research or language learning purposes only