» » »

Dick Dale - Riders In The Sky Bass

Artists:  A B C D E F G H I J K L M N O P Q R S T U V W X Y Z # 

Riders In The Sky Bass

(ver. 1) Click to play this song!
Dick Dale
 Rating:
4/5 (4 votes)

 Riders In The Sky lessons Tabs too difficult? Try these video lessons and learn fast
 
                Gtr I (E A D G) - 'Ray Sambra - Bass'


  Q=178
 4/4
  Gtr I
  Wx4
|--------|
|--------|
|--------|
|--------|


                                                       2/4
  W           Q  Q  Q  Q    Q  Q  Q  Q    Q  Q  Q  Q    Q  Q
|----------||-------------|-------------|-------------|-------|
|----------||----2-----2--|-------------|-------------|-------|
|----------||-0-----0-----|----5-----5--|----5-----5--|----5--|
|----------||-------------|-3-----3-----|-3-----3-----|-3-----|


 4/4
  Q  Q  E E Q    Q  Q  E E Q    Q  Q  Q  Q    Q  Q  E E Q
|--------------|--------------|-------------|---------------|
|----2------2--|----2------2--|----2-----2--|----2------2---|
|-0-----0-0----|-0-----0-0----|-0-----0-----|-0-----0-0-----|
|--------------|--------------|-------------|---------------|


                              2/4     4/4
  Q  Q  Q  Q    Q  Q  E E Q    Q  Q    Q  Q  Q  Q
|-------------|--------------|-------|-------------|
|----2-----2--|--------------|-------|----2-----2--|
|-0-----0-----|----3------3--|----3--|-0-----0-----|
|-------------|-1-----1-1----|-1-----|-------------|


  Q  Q  E E Q    Q  Q  E E Q    Q  Q  E E Q    Q  Q  E E Q
|--------------|--------------|--------------|--------------|
|----2------2--|----2------2--|--------------|--------------|
|-0-----0-0----|-0-----0-0----|----5------5--|----5------5--|
|--------------|--------------|-3-----3-3----|-3-----3-3----|


 2/4     4/4
  Q  Q    Q  Q  E E Q    Q  Q  E E Q    Q  Q  E E Q
|-------|--------------|--------------|--------------|
|-------|----2------2--|----2------2--|----2------2--|
|----5--|-0-----0-0----|-0-----0-0----|-0-----0-0----|
|-3-----|--------------|--------------|--------------|


  Q  Q  Q  Q    Q  Q  Q  Q    Q  Q  E E Q    Q  Q  E E Q    Q  Q  Q  Q
|-------------|-------------|--------------|--------------|-------------||
|----2-----2--|----2-----2--|--------------|----2------2--|----2-----2--||
|-0-----0-----|-0-----0-----|----3------3--|-0-----0-0----|-0-----0-----||
|-------------|-------------|-1-----1-1----|--------------|-------------||


  Q  Q  Q  Q    Q  Q  E E Q    Q  Q  Q  Q    Q  Q  E E Q
|-------------|--------------|-------------|--------------|
|----2-----5--|----5------5--|----5-----2--|----2------2--|
|-0-----3-----|-3-----3-3----|-3-----0-----|-0-----0-0----|
|-------------|--------------|-------------|--------------|


 2/4     4/4
  Q  Q    Q  Q  E E Q    Q  Q  E E Q    Q  Q  E E Q
|-------|--------------|--------------|--------------|
|----2--|--------------|--------------|----2------2--|
|-0-----|----3------3--|----3------3--|-0-----0-0----|
|-------|-1-----1-1----|-1-----1-1----|--------------|


  Q  Q  Q  Q     Q  Q  Q  Q    Q  Q  Q  Q    Q  Q  Q  Q
|-------------||-------------|-------------|-------------|
|----2-----2--||----2-----2--|-------------|----2-----2--|
|-0-----0-----||-0-----0-----|----5-----5--|-0-----0-----|
|-------------||-------------|-3-----3-----|-------------|


  Q  Q  E E Q    Q  Q  Q  Q    Q  Q  Q  Q    Q  Q  Q  Q
|--------------|-------------|-------------|-------------|
|----2------2--|----2-----2--|-------------|----2-----2--|
|-0-----0-0----|-0-----0-----|----5-----5--|-0-----0-----|
|--------------|-------------|-3-----3-----|-------------|


  Q  Q  Q  Q    Q  Q  Q  Q    Q  Q  E E Q    Q  Q  E E Q
|-------------|----2-----2--|--------------|----2------2--|
|----2-----2--|-0-----0-----|----5------5--|-0-----0-0----|
|-0-----0-----|-------------|-3-----3-3----|--------------|
|-------------|-------------|--------------|--------------|


  Q  Q  E E Q    Q  Q  E E Q    Q  Q  E E Q    Q  Q  E E Q
|----2------2--|--------------|--------------|--------------|
|-0-----0-0----|----2------2--|--------------|----2------2--|
|--------------|-0-----0-0----|----5------5--|-0-----0-0----|
|--------------|--------------|-3-----3-3----|--------------|


  Q  Q  E E Q     Q  Q  E E Q    Q  Q  E E Q    Q  Q  E E Q
|--------------||--------------|----2------2--|--------------|
|----2------2--||----2------2--|-0-----0-0----|----2------2--|
|-0-----0-0----||-0-----0-0----|--------------|-0-----0-0----|
|--------------||--------------|--------------|--------------|


  Q  Q  E E Q    Q  Q  E E Q    Q  Q  E E Q    Q  Q  E E Q
|--------------|--------------|----2------2--|--------------|
|----2------2--|----2------2--|-0-----0-0----|----2------2--|
|-0-----0-0----|-0-----0-0----|--------------|-0-----0-0----|
|--------------|--------------|--------------|--------------|


  Q  Q  E E Q     Q  Q  Q  Q    Q  Q  Q  Q    Q  Q  Q  Q
|--------------||-------------|-------------|-------------|
|----2------2--||----2-----2--|-------------|----2-----2--|
|-0-----0-0----||-0-----0-----|----5-----5--|-0-----0-----|
|--------------||-------------|-3-----3-----|-------------|


  Q  Q  Q  Q    Q  Q  Q  Q    Q  Q  Q  Q    Q  Q  Q  Q
|-------------|-------------|-------------|-------------|
|----2-----2--|----2-----2--|-------------|----2-----2--|
|-0-----0-----|-0-----0-----|----5-----5--|-0-----0-----|
|-------------|-------------|-3-----3-----|-------------|


  Q  Q  Q  Q    Q  Q  Q  Q    Q  Q  E E Q    Q  Q  E E Q
|-------------|----2-----2--|--------------|----2------2--|
|----2-----2--|-0-----0-----|----5------5--|-0-----0-0----|
|-0-----0-----|-------------|-3-----3-3----|--------------|
|-------------|-------------|--------------|--------------|


  Q  Q  E E Q    Q  Q  Q  Q    Q  Q  Q  Q    Q  Q  Q  Q
|----2------2--|-------------|-------------|-------------|
|-0-----0-0----|----2-----2--|-------------|-------------|
|--------------|-0-----0-----|----5-----5--|----5-----5--|
|--------------|-------------|-3-----3-----|-3-----3-----|


  Q  Q  E E Q     Q  Q  Q  Q    Q  Q  E E Q    Q  Q  E E Q
|--------------||-------------|--------------|--------------|
|----2------2--||----2-----2--|--------------|--------------|
|-0-----0-0----||-0-----0-----|----5------5--|----5------5--|
|--------------||-------------|-3-----3-3----|-3-----3-3----|


  Q  Q  Q  Q    Q  Q  E E Q    Q  Q  Q  Q    Q  Q  E E Q
|-------------|--------------|-------------|--------------|
|----2-----2--|----2------2--|----2-----2--|----2------2--|
|-0-----0-----|-0-----0-0----|-0-----0-----|-0-----0-0----|
|-------------|--------------|-------------|--------------|


  Q  Q  Q  Q    Q  Q  E E Q    Q  Q  Q  Q    Q  Q  E E Q
|-------------|--------------|-------------|--------------||
|----2-----2--|--------------|----------2--|----2------2--||
|-0-----0-----|----3------3--|----3--0-----|-0-----0-0----||
|-------------|-1-----1-1----|-1-----------|--------------||


                             2/4     4/4
  Q  Q  Q  Q    Q  Q  Q  Q    Q  Q    Q  Q  Q  Q
|-------------|-------------|-------|-------------|
|----2-----2--|----2-----2--|----2--|----2-----2--|
|-0-----0-----|-0-----0-----|-0-----|-0-----0-----|
|-------------|-------------|-------|-------------|


  Q  Q  Q  Q    Q  Q  Q  Q    Q  Q  Q  Q    Q  Q  Q  Q    Q  Q  Q  Q
|-------------|-------------|-------------|-------------|-------------*|
|----2-----2--|----2-----2--|----2-----2--|----2-----2--|----2-----2--*|
|-0-----0-----|-0-----0-----|-0-----0-----|-0-----0-----|-0-----0-----*|
|-------------|-------------|-------------|-------------|-------------*|
            
Submit corrections


        Riders In The Sky lessons Hard to play? Try these video lessons and learn fast Riders In The Sky lessons
        
↑ Back to top | Tablatures and chords for acoustic guitar and electric guitar, ukulele, drums are parodies/interpretations of the original songs. You may use it for private study, scholarship, research or language learning purposes only