» » »

Dexys Midnight Runners - Come On Eileen Bass

Artists:  A B C D E F G H I J K L M N O P Q R S T U V W X Y Z # 

Come On Eileen Bass

(ver. 3) Click to play this song!
Dexys Midnight Runners
 Rating:
4/5 (4 votes)

 Come On Eileen lessons Tabs too difficult? Try these video lessons and learn fast
 
                Tempo = 110
Bass Gtr

Legend
L - tied note
x - dead note
h - hammer on/pull off
b - bend
s - slide
~ - vibrato
g - ghost note
> - accentuated note
t - trill
M - palm mute
. - staccato
P - popping (bass)
S - slapping (bass)
+ - tapping
W - wide vibrato
< - fade in
w - whammy bar
= - tremolo picking
v - brush up
^ - brush down
V - pick stroke up
n - pick stroke down


G |-------|-------|----------------------------------------------------|
D |-------|-------|----------------------------------------------------|
A |-------|-------|--3--------3--3-----------3--------3--3-------------|
E |-------|-------|----------------------------------------------------|


----------------------------------------------------|
--3--------3--3-------------------------------------|
--------------------------3--------3--3-------------|
----------------------------------------------------|


--------------------------3--------3--3-------------|
--3--------3--3-------------------------------------|
----------------------------------------------------|
----------------------------------------------------|


--3--------3--3-------------------------------------|
--------------------------3--------3--3-------------|
----------------------------------------------------|
----------------------------------------------------|


----------------------------------------------------|
----------------------------------------------------|
--3--------3--3-----------3--------3--3-------------|
----------------------------------------------------|


----------------------------------------------------|
--3--------3--3-------------------------------------|
--------------------------3--------3--3-------------|
----------------------------------------------------|


--------------------------3--------3--3-------------|
--3--------3--3-------------------------------------|
----------------------------------------------------|
----------------------------------------------------|


--3--------3--3-------------------------------------|
--------------------------3--------3--3-------------|
----------------------------------------------------|
----------------------------------------------------|


----------------------------------------------------|
----------------------------------------------------|
--3--------3--3-----------3--------3--3-------------|
----------------------------------------------------|


--------------------------------------0-------------|
--------------------------------------------3-------|
--3--------3--3-----------3--------3----------------|
----------------------------------------------------|


--------------------------------------------0-------|
--2--------2--2-----------2--------2--2-------------|
----------------------------------------------------|
----------------------------------------------------|


----------------------------------------------------|
--3--------3--3-----------3--------3--3-----0-------|
----------------------------------------------------|
----------------------------------------------------|


--------------------------0--------0--0-------------|
--------------------2-------------------------------|
--3--------3--3-------------------------------------|
----------------------------------------------------|


--------------------------------------0-------------|
--------------------------------------------3-------|
--3--------3--3-----------3--------3----------------|
----------------------------------------------------|


--------------------------------------------0-------|
--2--------2--2-----------2--------2--2-------------|
----------------------------------------------------|
----------------------------------------------------|


----------------------------------------------------|
--3--------3--3-----------3--------3--3-----0-------|
----------------------------------------------------|
----------------------------------------------------|


--------------------------0--------0--0-------------|
--------------------2-------------------------------|
--3--------3--3-------------------------------------|
----------------------------------------------------|


--------------------------------------0-------------|
--------------------------------------------3-------|
--3--------3--3-----------3--------3----------------|
----------------------------------------------------|


--------------------------------------------0-------|
--2--------2--2-----------2--------2--2-------------|
----------------------------------------------------|
----------------------------------------------------|


----------------------------------------------------|
--3--------3--3-----------3--------3--3-----0-------|
----------------------------------------------------|
----------------------------------------------------|


--------------------------0--------0--0-------------|
--------------------2-------------------------------|
--3--------3--3-------------------------------------|
----------------------------------------------------|


--------------------------------------0-------------|
--------------------------------------------3-------|
--3--------3--3-----------3--------3----------------|
----------------------------------------------------|


--------------------------------------------0-------|
--2--------2--2-----------2--------2--2-------------|
----------------------------------------------------|
----------------------------------------------------|


----------------------------------------------------|
--3--------3--3-----------3--------3--3-----0-------|
----------------------------------------------------|
----------------------------------------------------|


--------------------------0--------0--0-------------|
--------------------2-------------------------------|
--3--------3--3-------------------------------------|
----------------------------------------------------|


--------------------------------------0-------------|
--------------------------------------------3-------|
--3--------3--3-----------3--------3----------------|
----------------------------------------------------|


--------------------------------------------0-------|
--2--------2--2-----------2--------2--2-------------|
----------------------------------------------------|
----------------------------------------------------|


----------------------------------------------------|
--3--------3--3-----------3--------3--3-----0-------|
----------------------------------------------------|
----------------------------------------------------|


--------------------------0--------0--0-------------|
--------------------2-------------------------------|
--3--------3--3-------------------------------------|
----------------------------------------------------|


--------------------------------------0-------------|
--------------------------------------------3-------|
--3--------3--3-----------3--------3----------------|
----------------------------------------------------|


--------------------------------------------0-------|
--2--------2--2-----------2--------2--2-------------|
----------------------------------------------------|
----------------------------------------------------|


----------------------------------------------------|
--3--------3--3-----------3--------3--3-----0-------|
----------------------------------------------------|
----------------------------------------------------|


--------------------------0--------0--0-------------|
--------------------2-------------------------------|
--3--------3--3-------------------------------------|
----------------------------------------------------|


--0--------0--0-------------------------------------|
--------------------0-------------------------------|
----------------------------------------------------|
--------------------------3--------3--3-------------|


----------------------------|----------------------------|
----------------------------|--0--------0----------------|
----------------------------|-----2--0--------2--0--2----|
--3--------3--3-------------|----------------------------|


--2--------2----------------|----------------------------|
-----4--2--------4--2--4----|--2--0-----2-----0----------|
----------------------------|--------2-----------2--0----|
----------------------------|----------------------------|


-----------0--2--------0----|----------------------------|
-----0--2--------2--4-------|--0--------0----------------|
----------------------------|-----2--0--------2--0--2----|
--3-------------------------|----------------------------|


--2--------2----------------|----------------------------|
-----4--2--------4--2--4----|--2--0-----2-----0----------|
----------------------------|--------2-----------2--0----|
----------------------------|----------------------------|


-----------0--2--------0----|
-----0--2--------2--4-------|
----------------------------|
--3-------------------------|


----------------------------------------------------|
----------------------------------------------------|
--0--------0--0-----------0--------0--0-------------|
----------------------------------------------------|


----------------------------------------------------|
----------------------------------------------------|
--0--------0--0-----------0--------0--0-------------|
----------------------------------------------------|


--------------------------------------0-------------|
--------------------------------------------3-------|
--3--------3--3-----------3--------3----------------|
----------------------------------------------------|


--------------------------------------------0-------|
--2--------2--2-----------2--------2--2-------------|
----------------------------------------------------|
----------------------------------------------------|


----------------------------------------------------|
--3--------3--3-----------3--------3--3-----0-------|
----------------------------------------------------|
----------------------------------------------------|


--------------------------0--------0--0-------------|
--------------------2-------------------------------|
--3--------3--3-------------------------------------|
----------------------------------------------------|


--------------------------------------0-------------|
--------------------------------------------3-------|
--3--------3--3-----------3--------3----------------|
----------------------------------------------------|


--------------------------------------------0-------|
--2--------2--2-----------2--------2--2-------------|
----------------------------------------------------|
----------------------------------------------------|


----------------------------------------------------|
--3--------3--3-----------3--------3--3-----0-------|
----------------------------------------------------|
----------------------------------------------------|


--------------------------0--------0--0-------------|
--------------------2-------------------------------|
--3--------3--3-------------------------------------|
----------------------------------------------------|


--------------------------------------0-------------|
--------------------------------------------3-------|
--3--------3--3-----------3--------3----------------|
----------------------------------------------------|


--------------------------------------------0-------|
--2--------2--2-----------2--------2--2-------------|
----------------------------------------------------|
----------------------------------------------------|


----------------------------------------------------|
--3--------3--3-----------3--------3--3-----0-------|
----------------------------------------------------|
----------------------------------------------------|


--------------------------0--------0--0-------------|
--------------------2-------------------------------|
--3--------3--3-------------------------------------|
----------------------------------------------------|


--------------------------------------0-------------|
--------------------------------------------3-------|
--3--------3--3-----------3--------3----------------|
----------------------------------------------------|


--------------------------------------------0-------|
--2--------2--2-----------2--------2--2-------------|
----------------------------------------------------|
----------------------------------------------------|


----------------------------------------------------|
--3--------3--3-----------3--------3--3-----0-------|
----------------------------------------------------|
----------------------------------------------------|


--------------------------0--------0--0-------------|
--------------------2-------------------------------|
--3--------3--3-------------------------------------|
----------------------------------------------------|


--0--------0--0-------------------------------------|
--------------------0-------------------------------|
----------------------------------------------------|
--------------------------3--------3--3-------------|


----------------------------|----------------------------|
----------------------------|--0--------0----------------|
----------------------------|-----2--0--------2--0--2----|
--3--------3--3-------------|----------------------------|


--2--------2----------------|----------------------------|
-----4--2--------4--2--4----|--2--0-----2-----0----------|
----------------------------|--------2-----------2--0----|
----------------------------|----------------------------|


-----------0--2--------0----|----------------------------|
-----0--2--------2--4-------|--0--------0----------------|
----------------------------|-----2--0--------2--0--2----|
--3-------------------------|----------------------------|


--2--------2----------------|----------------------------|
-----4--2--------4--2--4----|--2--0-----2-----0----------|
----------------------------|--------2-----------2--0----|
----------------------------|----------------------------|


-----------0--2--------0----|----------------------------|
-----0--2--------2--4-------|--0--------0----------------|
----------------------------|-----2--0--------2--0--2----|
--3-------------------------|----------------------------|


--2--------2----------------|----------------------------|
-----4--2--------4--2--4----|--2--0-----2-----0----------|
----------------------------|--------2-----------2--0----|
----------------------------|----------------------------|


-----------0--2--------0----|
-----0--2--------2--4-------|
----------------------------|
--3-------------------------|


----------------------------------------------------|
--0L----------------------0-----------0-------------|
----------------------------------------------------|
----------------------------------------------------|


----------------------------------------------------|
--0-----------0-----------0-----------0-------------|
----------------------------------------------------|
----------------------------------------------------|


----------------------------------------------------|
--0-----------0-----------0-----------0-------------|
----------------------------------------------------|
----------------------------------------------------|


----------------------------------------------------|
--4-----------4-----------4-----------4-------------|
----------------------------------------------------|
----------------------------------------------------|


----------------------------------------------------|
--4-----------4-----------4-----------4-------------|
----------------------------------------------------|
----------------------------------------------------|


--0-----------0-----------0-----------0-------------|
----------------------------------------------------|
----------------------------------------------------|
----------------------------------------------------|


--0-----------0-----------0-----------0-------------|
----------------------------------------------------|
----------------------------------------------------|
----------------------------------------------------|


----------------------------------------------------|
--0-----------0-----------0-----------0-------------|
----------------------------------------------------|
----------------------------------------------------|


--2-----------2-----------2-----------2-------------|
----------------------------------------------------|
----------------------------------------------------|
----------------------------------------------------|


----------------------------------------------------|
--0-----------0-----------0-----------0-------------|
----------------------------------------------------|
----------------------------------------------------|


----------------------------------------------------|
--0-----------0-----------0-----------0-------------|
----------------------------------------------------|
----------------------------------------------------|


----------------------------------------------------|
--4-----------4-----------4-----------4-------------|
----------------------------------------------------|
----------------------------------------------------|


----------------------------------------------------|
--4-----------4-----------4-----------4-------------|
----------------------------------------------------|
----------------------------------------------------|


--0-----------0-----------0-----------0-------------|
----------------------------------------------------|
----------------------------------------------------|
----------------------------------------------------|


--0-----------0-----------0-----------0-------------|
----------------------------------------------------|
----------------------------------------------------|
----------------------------------------------------|


----------------------------------------------------|
--0-----------0-----------0-----------0-------------|
----------------------------------------------------|
----------------------------------------------------|


--2-----------2-----------2-----------2-------------|
----------------------------------------------------|
----------------------------------------------------|
----------------------------------------------------|


----------------------------------------------------|
--0-----------0-----------0-----------0-------------|
----------------------------------------------------|
----------------------------------------------------|


----------------------------------------------------|
--0-----------0-----------0-----------0-------------|
----------------------------------------------------|
----------------------------------------------------|


----------------------------------------------------|
--4-----------4-----------4-----------4-------------|
----------------------------------------------------|
----------------------------------------------------|


----------------------------------------------------|
--4-----------4-----------4-----------4-------------|
----------------------------------------------------|
----------------------------------------------------|


--0-----------0-----------0-----------0-------------|
----------------------------------------------------|
----------------------------------------------------|
----------------------------------------------------|


--0-----------0-----------0-----------0-------------|
----------------------------------------------------|
----------------------------------------------------|
----------------------------------------------------|


----------------------------------------------------|
--0-----------0-----------0-----------0-------------|
----------------------------------------------------|
----------------------------------------------------|


--2-----------2-----------2-----------2-------------|
----------------------------------------------------|
----------------------------------------------------|
----------------------------------------------------|


----------------------------|--2--------2----------------|
--0--------0----------------|-----4--2--------4--2--4----|
-----2--0--------2--0--2----|----------------------------|
----------------------------|----------------------------|


----------------------------|-----------0--2--------0----|
--2--0-----2-----0----------|-----0--2--------2--4-------|
--------2-----------2--0----|----------------------------|
----------------------------|--3-------------------------|


----------------------------|--2--------2----------------|
--0--------0----------------|-----4--2--------4--2--4----|
-----2--0--------2--0--2----|----------------------------|
----------------------------|----------------------------|


----------------------------|-----------0--2--------0----|
--2--0-----2-----0----------|-----0--2--------2--4-------|
--------2-----------2--0----|----------------------------|
----------------------------|--3-------------------------|


----------------------------|--2--------2----------------|
--0--------0----------------|-----4--2--------4--2--4----|
-----2--0--------2--0--2----|----------------------------|
----------------------------|----------------------------|


----------------------------|-----------0--2--------0----|
--2--0-----2-----0----------|-----0--2--------2--4-------|
--------2-----------2--0----|----------------------------|
----------------------------|--3-------------------------|


----------------------------|--2--------2----------------|
--0--------0----------------|-----4--2--------4--2--4----|
-----2--0--------2--0--2----|----------------------------|
----------------------------|----------------------------|


----------------------------|-----------0--2--------0----|
--2--0-----2-----0----------|-----0--2--------2--4-------|
--------2-----------2--0----|----------------------------|
----------------------------|--3-------------------------|


----------------------------|--2--------2----------------|
--0--------0----------------|-----4--2--------4--2--4----|
-----2--0--------2--0--2----|----------------------------|
----------------------------|----------------------------|


----------------------------|-----------0--2--------0----|
--2--0-----2-----0----------|-----0--2--------2--4-------|
--------2-----------2--0----|----------------------------|
----------------------------|--3-------------------------|


----------------------------|--2--------2----------------|
--0--------0----------------|-----4--2--------4--2--4----|
-----2--0--------2--0--2----|----------------------------|
----------------------------|----------------------------|


----------------------------|-----------0--2--------0----|-------|-------||
--2--0-----2-----0----------|-----0--2--------2--4-------|--0----|-------||
--------2-----------2--0----|----------------------------|-------|-------||
----------------------------|--3-------------------------|-------|-------||
            
Submit corrections


        Come On Eileen lessons Hard to play? Try these video lessons and learn fast Come On Eileen lessons
        
↑ Back to top | Tablatures and chords for acoustic guitar and electric guitar, ukulele, drums are parodies/interpretations of the original songs. You may use it for private study, scholarship, research or language learning purposes only