» » »

Dexys Midnight Runners - Come On Eileen Bass

Artists:  A B C D E F G H I J K L M N O P Q R S T U V W X Y Z # 

Come On Eileen Bass

(ver. 2) Click to play this song!
Dexys Midnight Runners
 Rating:
4.3/5 (6 votes)

 Come On Eileen lessons Tabs too difficult? Try these video lessons and learn fast
 
                Good Song.  Has a nice line thats fun to play.  Get used to the timing.


Intro
G:---------------------------3-33-3-33----------------------------|
D:------------3-33------3-33-----------3-33-----------------------|
A:--3-33-3-33------3-33-------------------------------------------|
E:----------------------------------------------------------------|


G:---------------------------3-33-3-33----------------------------|
D:------------3-33------3-33-----------3-33-----------------------|
A:--3-33-3-33------3-33---------------------3-33-3-33-------------|
E:----------------------------------------------------------------|


Verse                                                Last One B4 Chrous
G:--------------------------------------------------|-------------|
D:----------5-3-2-22-22-2353-33-33-332----2/55-55---|-55-55\------|
A:-3-33-33-3--------------------------3-33----------|-------------|
E:--------------------------------------------------|--------3-33-|


Chorus
G:----------------------------------------------------------------|
D:----------------7-----7-----7--5-----5-----5-55-5-----7---------|
A:-5-----5-----5----9-7---9-7------5-7---5-7--------5-7---7-9-----|
E:---5-7---5-7----------------------------------------------------|


Interlude 2
G:----------------------------------------------------------------|
D:----------------------------------------------------------------|
A:----------------------------------------------------------------|
E:-5-55-5-55-5-55-5-55--------------------------------------------|

To Verse
To Chorus

Interlude 2
G:-----------------------------------------------------------------|
D:-----------------4-4-4-4-4-4-4-4-5-5-5-5-5-5-5-5---------7-7-7-7-|
A:-5-5-5-5-5-5-5-5---------------------------------5-5-5-5---------|
E:-----------------------------------------------------------------|

To Chorus
            
Submit corrections


        Come On Eileen lessons Hard to play? Try these video lessons and learn fast Come On Eileen lessons
        
↑ Back to top | Tablatures and chords for acoustic guitar and electric guitar, ukulele, drums are parodies/interpretations of the original songs. You may use it for private study, scholarship, research or language learning purposes only