Home » D » Dewa »

Dewa - Pupus Tabs

Artists:  A B C D E F G H I J K L M N O P Q R S T U V W X Y Z # 

Pupus Tabs

(ver. 2) Click to play this song!
Dewa
solo:


scale : G major

E----------------------------------------------------------------------------------------------|
B----------------------------------------------------------------------------------------------|
G---------------------------3b-7----------------------7--9-11s12s11--9--7s9s7--3hb-3-3-3-------|
D---------0--2--4s5s4--5-7----9p8h9~--7p5---5--5-7s9------------------------------------5-7p5--|
A----0h2-----------------------------------7p5--7----------------------------------------------|
E--3-------------------------------------------------------------------------------------------|

----------double stop-----------------------------

E-------------------------------------------------------------------------------------------|
B--/8------------10--12s8---7/8------------10---7s5-----------------------------------------|
G--------------------------------------------------------------------------------------11b--|
D--/9-(9) s10--10--12s8---8/9-( 9)s10--10---7s5------------------12-----14--14p12-----------|
A-----------------------------------------------------14p12--14----14-----14-------14-------|
E-------------------------------------------------------------------------------------------|

3x

E-----------------------------------------------------------------------------------------|
B----------------------------------------------------------------15----15-----------------|
G----------------------------------13b-------------------------14b--14rbp12-----12h14p12--|
D-------12-----14--14p12---------------------12-----14--14p12------------14---------------|
A---14-----14---------------14------------14------12--------------------------------------|
E-----------------------------------------------------------------------------------------|

E------------------------------7------------------|
B---------------7b--------------7b~---------------|
G----/7--9--7--------/7--9------------ /7--9--7---|
D-------------------------------------------------|
A-------------------------------------------------|
E-------------------------------------------------|

-----bend ( b ) di sini hanya 1/4 saja.

E---------------------------------------12b-----------------------------|
B-----------15b--12------------12----------12--( 2 x )------------------|
G-----12----------------12------------------------------------12--14hb--|
D-----------------------------------------------------------------------|
A-----------------------------------------------------------------------|
E-----------------------------------------------------------------------|

tanda (xxx): lakukan itu berulang-ulang

E-------------------------------15------------------------------------15----17b(xxx)--(17b)~~---|
B--12----12----12--------15b---15~---15-15bp12---11b-----/15----15------------------------------|
G--14b--14b--14b--14rb----------------------------14--------------------------------------------|
D-----------------------------------------------------------------------------------------------|
A-----------------------------------------------------------------------------------------------|
E-----------------------------------------------------------------------------------------------|

E--------------20b--20-19--------------------------------20p19--------------------|
B------------------------------22---20--20h22p20---------------------20-----------|
G---/19-19--------------------------------------------21-----------21-------19~---|
D---------------------------------------------------------------------------------|
A---------------------------------------------------------------------------------|
E---------------------------------------------------------------------------------|


-end of tab.


beta memohom maaf kerana tab ini xberapa iras dgn yg asal
            
Submit corrections

↑ Back to top | Tablatures and chords for acoustic guitar and electric guitar, ukulele, drums are parodies/interpretations of the original songs. You may use it for private study, scholarship, research or language learning purposes only