Home » D » Dewa »

Dewa - Pupus Bass

Artists:  A B C D E F G H I J K L M N O P Q R S T U V W X Y Z # 

Pupus Bass

(ver. 1) Click to play this song!
Dewa
Verse 1
G|----------------------------------------------------------------|
D|----------------------------------------------------------------|
A|-------------------3--22--0--00--3--55----0-2-3--3-33--55-------|
E|-15\-3--22--0--00-----------------------3-----------------5--55-|

Chorus 1
G|---------5-----------------------------------------------|
D|---------------------------------------4-----------------|
A|-------3---33--5-44-43--5-5h7p5----------------55-3----3-|
E|-3--22-----------------5--------5-3--22--0-00------------|

Verse 2
G|---------------------------------------------------------------|
D|---------------------------------------------------------------|
A|---------------3--22--0--00--3--55----0-2-3--3-33--55-5h7------|
E|-3--22--0--00-----------------------3--------------------5--55-|

Chorus 2
G|---------5-----------------------------------------------|
D|---------------------------------------4-2--22-----------|
A|-------3---33--5-44-43--5-5h7p5----------------55-3----3-|
E|-3--22-----------------5--------5-3--22------------------|

Interlude
G|---------------------------------------------------------------|
D|---------------------------------------------------------------|
A|-------------55--33--22--00------55--33--22------------------5-|
E|-33--22--00------------------33--------------00--5----1-/13----|

Chorus 3
G|------------------------------------------------------|
D|------------------------------------4-----------------|
A|-------3-3-33--5-44-43-7-5-3----------------55-3----3-|
E|-3--22-----------------------5-3--22--0-00------------|

G|---------5--------------------------------------------|
D|------------------------------------4-2--22-----------|
A|-------3---33--5-44-43-7-5-3----------------55-3----3-|
E|-3--22-----------------------5-3--22------------------|

Ending
G|-----------------------------------------------------------------------------------|
D|-------------------------------------------------------------77--------------------|
A|-----------------33--22--00--00------------------33--22--00-7---7------------------|
E|-33--22--00--00------------------33--22--00--00------------------75-33--22--00--00-|

G|-----------------------------------------------------|
D|-----------------------------------------------------|
A|-33--22--00--00-------------------33--22--00--00-----|
E|------------0---7533--22--00--00------------------3--|
            
Submit corrections

↑ Back to top | Tablatures and chords for acoustic guitar and electric guitar, ukulele, drums are parodies/interpretations of the original songs. You may use it for private study, scholarship, research or language learning purposes only