Home » D » Devotchka »

Devotchka - One Sided Society Tabs

Artists:  A B C D E F G H I J K L M N O P Q R S T U V W X Y Z # 

One Sided Society Tabs
Version #1
Devotchka


Copy URL
Intro:  
E|------------------------------------------|
B|------------------------------------------|
G|--12----------10--------------------------|
D|--12--12--10--10--8--10-------------------|
A|--10--12--10--8---8--10-------------------|
E|------10--8-------6--8--------------------|
I know the intro sounds odd but I’m pretty sure this is how it’s played.  It just might take some time to get it to sound right.

Verse: (You’ve got a problem…)
E|------------------------------------------|
B|------------------------------------------|
G|--12-------------10-----------------------|
D|--12--12--10-12--10--8--10----------------|
A|--10--12--10-12--8---8--10----------------|
E|------10--8--10------6--8-----------------|

Chorus
E|------------------------------------------|
B|------------------------------------------|
G|------8--10------8--10------8--10---------|
D|--10--8--10--10--8--10--10--8--10--8--10--|
A|--10--6--8---10--6--8---10--6--8---8--10--|
E|--8----------8----------8----------6--8---|

Outro
E|------------------------------------------|
B|------------------------------------------|
G|------------------------------------------|
D|-----------------8--10--------------------|
A|--hold feedback--8--10--------------------|
E|-----------------6--8---------------------|


Song Order
Intro
Verse
Chorus
Verse
Chorus
Verse
Chorus
Outro

If you have questions or comments e-mail me.

         OOOOOOOO   IIIIIIII  !!  
        OOO    OOO     II     !!
        OOO    OOO     II     !!
        OOO    OOO     II     !!
        OOO    OOO     II     
         OOOOOOOO   IIIIIIII  !!
            
Submit corrections

↑ Back to top | Tablatures and chords for acoustic guitar and electric guitar, ukulele, drums are parodies/interpretations of the original songs. You may use it for private study, scholarship, research or language learning purposes only