Home » D » Devildriver »

Devildriver - I Could Care Less Tabs

Artists:  A B C D E F G H I J K L M N O P Q R S T U V W X Y Z # 

I Could Care Less Tabs

(ver. 2) Click to play this song!
Devildriver
 Rating:
4/5 (4 votes)
                Tuning: Drop D down 1.5 steps

3p2- pull off
2h3- hammer on
pm or *- palm mute


Intro
Guitar 1

C#|-13-------13--------15---------17---------17-21-17----|      
G#|----15-15----15-15----15-15-----15-15-----------------|        
E |----------------------------------------------------19|           

Guitar 2

B  |0-0-|                    
F# |0-0-|      
B  |0-0-|                 

 Verse

B|-3p0-3p0-3p0-3p0--2-2-2-2|
F|-3p0-3p0-3p0-3p0--2-2-2-2|
B|-3p0-3p0-3p0-3p0--2-2-2-2|

     Chorus
B|-0-5-8-0-5-8-0-5-8-0-5-8-0-5|
F|-0-5-8-0-5-8-0-5-8-0-5-8-0-5|
B|-0-5-8-0-5-8-0-5-8-0-5-8-0-5|
                           *

B|-0-5-8-0-5-8-0-5-8-0-5-8-0-8|
F|-0-5-8-0-5-8-0-5-8-0-5-8-0-8|
B|-0-5-8-0-5-8-0-5-8-0-5-8-0-8|
                           *
  Breakdown

B|-8-4-0-----1-4-0|
F|-8-4-0-----1-4-0|
B|-8-4-0-----1-4-0|

And that’s pretty much it. Just repeat each riff as necessary. Have fun
            
Submit corrections

↑ Back to top | Tablatures and chords for acoustic guitar and electric guitar, ukulele, drums are parodies/interpretations of the original songs. You may use it for private study, scholarship, research or language learning purposes only