Home » D » Devildriver »

Devildriver - I Could Care Less Tabs

Artists:  A B C D E F G H I J K L M N O P Q R S T U V W X Y Z # 

I Could Care Less Tabs

(ver. 1) Click to play this song!
Devildriver
 Rating:
4/5 (4 votes)
                Band   - Devildriver
Song   - I Could Care Less
CD     - Devildriver
Aim    - Empty St1tches
Tuning - B F# B E G# C#

These are the key riffs.... I'm too *** lazy to tab all of the correct times out

Key:
(#)	Volume Swell
P	Pull Off
/ or \	Slide
+            Tremelo

Intro:

Lead
C#|-13-------13-------15-------17-------17-22-------|
G#|----15-15----15-15----15-15----15-15-------22----|
E |----------------------------------------------19-|

Rythem
B |-----------|-0-0-|-0-0-00-000-00-000-00-000-00-|
F#|-((((0))))-|-0-0-|-0-0-00-000-00-000-00-000-00-|
B |-----------|-0-0-|-0-0-00-000-00-000-00-000-00-|
	             .. ... .. ... .. ... ..
Intro end/Verse
B |-3P0-3P0-3P0-3P0-2-2-2-2-|
F#|-3P0-3P0-3P0-3P0-2-2-2-2-|
B |-3P0-3P0-3P0-3P0-2-2-2-2-|

Chorus		       vAlternatev
B |-------------------------0-|-5-5-5-|-8-8-8-|
F#|-------------------------0-|-5-5-5-|-8-8-8-|
B |-0-5-8-0-5-8-0-5-8-0-5-8-0-|-5-5-5-|-8-8-8-|
                            .
B |-8/4-0~1\4-0|
F#|-8/4-0~1\4-0|
B |-8/4-0~1\4-0|

Outro
B |-8+/4+-0+-1+\4+-0+-|
F#|-8+/4+-0+-1+\4+-0+-|
B |-8+/4+-0+-1+\4+-0+-|
            
Submit corrections

↑ Back to top | Tablatures and chords for acoustic guitar and electric guitar, ukulele, drums are parodies/interpretations of the original songs. You may use it for private study, scholarship, research or language learning purposes only