Home » D » Devildriver »

Devildriver - Clouds Over California Tabs

Artists:  A B C D E F G H I J K L M N O P Q R S T U V W X Y Z # 

Clouds Over California Tabs

(ver. 3) Click to play this song!
Devildriver
 Rating:
4/5 (4 votes)
                DevilDriver
The Last Kind Words

C G C F A D

. - Palm Mute
h - Hammer-On
p - Pull-Off
~ - Let Ring
/ - Slide
b - Bend
r - Release
w\ - Whammy Bar Down
A.H. - Artificial Harmonic
x\ - Pick Slide


song structure

riff intro 2x
riff A
riff intro w/o scr*pe
riff A
riff intro w/o scr*pe
riff A
cool riff part 1 \
cool riff part 2  > this are the only reason you looked at this tab
cool riff part 3 / 


riff intro
gtr 1 & 2
|------------------------------------------------------------------------------|
|------------------------------------------------------------------------------|
|------------------------------------------------------------------------------|
|------------------------------------------------------------------------------|
|-x\-2-2-2-2-2-2-2-2-2-2-2-2-2-2-2-2-2-2-2-2-2-2-2-2-2-2-2-2-2-2---------------|
|-x\-2-2-2-2-2-2-2-2-2-2-2-2-2-2-2-2-2-2-2-2-2-2-2-2-2-2-2-2-2-2---------------|
|    . . . . . . . . . . . . . . . . . . . . . . . . . . . . . .


riff A
gtr 1 & 2   HELP ME ON THIS RIFF
|------------------------------------------------------------------------------|
|-----------?------------------------------------------------------------------|
|-------5-------5--------------------------------------------------------------|
|-----5-------3----------------------------------------------------------------|
|---5-------3------------------------------------------------------------------|
|-5-------3--------------------------------------------------------------------|


cool riff part 1
gtr 1 & 2
|------------------------------------------------------------------------------|
|--17-------17-------17----19-20-20-19-20-20-20-19-----------------------------|
|-----16-16----16-16----16-----------------------------------------------------|
|------------------------------------------------------------------------------|
|------------------------------------------------------------------------------|
|------------------------------------------------------------------------------|
|
|gtr 3
|------------------------------------------------------------------------------|
|------------------------------------------------------------------------------|
|------------------------------------5----------5------------------------------|
|---------------------------------5----------3---------------------------------|
|------------------------------5----------3------------------------------------|
|-2222222222222222222222222-5----------3---------------------------------------|
  .........................

cool riff part 2
gtr 1 & 2
|------------------------------------------------------------------------------|
|--17-------17-------17----19-20-19--19-20-19----------------------------------|
|-----16-16----16-16----16-----------------------------------------------------|
|------------------------------------------------------------------------------|
|------------------------------------------------------------------------------|
|------------------------------------------------------------------------------|
|
|gtr 3
|------------------------------------------------------------------------------|
|------------------------------------------------------------------------------|
|------------------------------------5----------5------------------------------|
|---------------------------------5----------3---------------------------------|
|------------------------------5----------3------------------------------------|
|-2222222222222222222222222-5----------3---------------------------------------|
  .........................

cool riff part 3
gtr 1 & 2
|------------------------------------------------------------------------------|
|--17-------17-------17----17-------17-------17----19-20-----------------------|
|-----16-16----16-16----16----16-16----16-16----16-----------------------------|
|------------------------------------------------------------------------------|
|------------------------------------------------------------------------------|
|------------------------------------------------------------------------------|
|
|gtr 3
|------------------------------------------------------------------------------|
|------------------------------------------------------------------------------|
|------------------------------------5----------5------------------------------|
|---------------------------------5----------3---------------------------------|
|------------------------------5----------3------------------------------------|
|-2222222222222222222222222-5----------3----------22222222222222222------------|
  .........................                       .................
            
Submit corrections

↑ Back to top | Tablatures and chords for acoustic guitar and electric guitar, ukulele, drums are parodies/interpretations of the original songs. You may use it for private study, scholarship, research or language learning purposes only