Home » D » Devildriver »

Devildriver - Clouds Over California Tabs

Artists:  A B C D E F G H I J K L M N O P Q R S T U V W X Y Z # 

Clouds Over California Tabs

(ver. 2) Click to play this song!
Devildriver
 Rating:
4.8/5 (20 votes)
                ----------------------------------------------------------
Clouds Over California - Devildriver
Album : The Last Kind Words
----------------------------------------------------------


| /  slide up
| \  slide down
| h  hammer-on
| p  pull-off
| ~  vibrato
| +  harmonic
| x  Mute note
| .  Palm mute
| b  Bend
| ^  Hold Bend

Note : 
|(5) Just place your finger on 5th fret ,then upstoke sweep.

Tuning: D A D G B E (Drop D)


Intro 0.00
e|-(5)---------------------------------------------------------------|
B|--(5)--------------------------------------------------------------|
G|---(5)-------------------------------------------------------------|
D|----(5)------------------------------------------------------------|
A|--------0-0-0-0-0-0-0-0-0-0-0-0-0-0-0-0-0-0-0-0-0-0-0-0-0-0-0-0-0-0|
D|--------0-0-0-0-0-0-0-0-0-0-0-0-0-0-0-0-0-0-0-0-0-0-0-0-0-0-0-0-0-0| X2
PM        . . . . . . . . . . . . . . . . . . . . . . . . . . . . . .   

0.09
e|-------------------------------------------------------------------------|
B|-------------------------------------------------------------------------|
G|-----------------------------------------------------------------------|X2
D|-------------------------------------------------------------------------|
A|-3-3-3--1-1-1-0-0-0-0-0-0-0-0-0-0-0-0-0-0-0-0-0-0-0-0-0-0-0-0-0-0-0-0-0-0|
D|3------1------0-0-0-0-0-0-0-0-0-0-0-0-0-0-0-0-0-0-0-0-0-0-0-0-0-0-0-0-0-0|
PM              . . . . . . . . . . . . . . . . . . . . . . . . . . . . . .

0.20
e|----------------------------------------------------------------|
B|-----------------15--------15-------15----17-18-18-17-17-18-18--|
G|--------------------14-14-----14-14----14-----------------------|
D|----------------------------------------------------------------|
A|--3-3-3--1-1-1--------------------------------------------------|
D|-3------1-------------------------------------------------------|

e|----------------------------------------------------------------|
B|-15--------15-------15-----17-18-17----17-18-17-----------------|
G|----14-14-----14-14----14-----------17----------17--------------|
D|----------------------------------------------------------------|
A|----------------------------------------------------------------|
D|----------------------------------------------------------------|

e|----------------------------------------------------------------|
B|-15-------15-------15-----15-------15-------15-----17-18--17^---|
G|----14-14----14-14----14-----14-14----14-14----14---------19^---|
D|----------------------------------------------------------------|
A|----------------------------------------------------------------|
D|----------------------------------------------------------------|


Verse 0.33
e|-------------------------------------------------------------------------|
B|-------------------------------------------------------------------------|
G|-------------------------------------------------------------------------|
D|--------------------------------------------------------------7777-------|
A|-----5---5---5h6p5------5---7---7h8p5------5---8---8/10--7777------6666--|
D|-000---0---0--------000---0---0--------000---0---0-----------------------|
PM ...   .   .        ...   .   .        ...   .   .       .... .... ....
  
e|-------------------------------------------------------------------------|
B|-------------------------------------------------------------------------|
G|-------------------------------------------------------------------------|
D|-------------------------------------------------------------------------|
A|-----5---5---5h6p5------5---7---7h8p5------5---8---8/10--777777-666666---|
D|-000---0---0--------000---0---0--------000---0---0-----------------------|
PM ...   .   .        ...   .   .        ...   .   .       ...... ......

e|-------------------------------------------------------------------------|
B|-------------------------------------------------------------------------|
G|-------------------------------------------------------------------------|
D|--------------------------------------------------------------7777-------|
A|-----5---5---5h6p5------5---7---7h8p5------5---8---8/10--7777------6666--|
D|-000---0---0--------000---0---0--------000---0---0-----------------------|
PM ...   .   .        ...   .   .        ...   .   .       .... .... ....

e|-------------------------------------------------------------------------|
B|-------------------------------------------------------------------------|
G|-------------------------------------------------------------------------|
D|-----0---2---0-3------0---3---2-5------2---5---3-6------3---6---6-5-3----|
A|-------------------------------------------------------------------------|
D|-000---0---0------000---0---0------000---0---0------000---0---0----------|
PM ...   .   .      ...   .   .      ...   .   .      ...   .   .
                                                               X2 All Verse

Repeat some part above and here's a cool Outro.

Outro
3.28
e|-------------------------------------------------------------------------|
B|-------------------------------------------------------------------------|
G|-------------------------------------------------------------------------|
D|----------------------------------------------0-4-4-4-0-5----------------|
A|----------------------------------------------0-4-4-4-0-5----------------|
D|-0-000-000-12\--0-000-000-14\--0-000-000-15\--0-4-4-4-0-5----------------|
PM . ... ...      . ... ...      . ... ...
  
e|-------------------------------------------------------------------------|
B|-------------------------------------------------------------------------|
G|-------------------------------------------------------------------------|
D|------------------------------------------------0-4-4-4-0-5--------------|
A|------------------------------------------------0-4-4-4-0-5--------------|
D|-0-0-000-000-12\--0-000-000-14\--0-000-000-15\--0-4-4-4-0-5--------------|
PM . . ... ...      . ... ...      . ... ...
            
Submit corrections

↑ Back to top | Tablatures and chords for acoustic guitar and electric guitar, ukulele, drums are parodies/interpretations of the original songs. You may use it for private study, scholarship, research or language learning purposes only