Home » D » Destroy The Runner »

Destroy The Runner - My Darkness Tabs

Artists:  A B C D E F G H I J K L M N O P Q R S T U V W X Y Z # 

My Darkness Tabs

(ver. 2) Click to play this song!
Destroy The Runner
(Intro)
INTRO:

------------------------------------------------------|
------------------------------------------------------|
------------------------------------------------------|
-0-0-------5h7p5-------8-5h7p5---------5-----2-3-2----|
-0-0-8-7-8---------8-7-8---------8-7-5-5-3-5-------5--|
-0-0-------------------8---------------5--------------|
   *

---------------------------------------------------------------|
---------------------------------------------------------------|
---------------------------------------------------------------|
-0-0-12p0-10p0-8p0-10p0-8p0-7\5-8-5h7p5---------5-----2-3-2----|
-0-0----------------------------8---------8-7-5-5-3-5-------5--|
-0-0----------------------------8---------------5--------------|
 *
            
Submit corrections

↑ Back to top | Tablatures and chords for acoustic guitar and electric guitar, ukulele, drums are parodies/interpretations of the original songs. You may use it for private study, scholarship, research or language learning purposes only