Home » D » Destroy The Runner »

Destroy The Runner - Columbia Tabs

Artists:  A B C D E F G H I J K L M N O P Q R S T U V W X Y Z # 

Columbia Tabs

(ver. 1) Click to play this song!
Destroy The Runner
DROP D TUNING!!!
. = palm mute
~ = bend
h = hammer
p = pull
_ = finger tapping
><= NO PAUSE
/ = slide

    .
E|-------------------------------------------------------------------------->
A|-------------------------------------------------------------------------->
D|----------------10,9-------------------------14,0,12,0,10,12,10----------->
G|----10---12,10------10-------------10,12,10---------------------12,0,10,12>
B|---8--10------12------12-10-0h10h12--------12----------------------------->
D|0-0----------------------------------------------------------------------->

|<---------------------------------------------------------->>>>>>>>>>>>>>>>>
|<-----------------------10,11------------------------------>>>>>>>>>>>>>>>>>
|<--10-9----12-10-9,10,9-------0,12,0,14,0,10,12,0,12,14,10~>>>>>>>>>>>>>>>>>
|<-0--0-0,10--0--0------10---------------------------------->>>>>>>>>>>>>>>>>
|<---------------------------------------------------------->>>>>>>>>>>>>>>>>
|<---------------------------------------------------------->>>>>>>>>>>>>>>>>

  __________________________________________________________________________
|<-------------------------------------------------------------------------->
|<-------------------------------------------------------------------------->
|<19,12,10,19,12,10,19,12,10,17,10,17,12,10,15,10,15,12,10,14,12,10,14,12,10>
|<-------------------------------------------------------------------------->
|<-------------------------------------------------------------------------->
|<-------------------------------------------------------------------------->

|<------------------------------------------------------------------------->>
|<----------------------------------------------13--------------13~-------->>
|<14~14~14,12,10,12,10,9h10p9-----10-14,15,12,14--14,12,14~12,14---14,12,14>>
|<---------------------------10,12----------------------------------------->>
|<------------------------------------------------------------------------->>
|<------------------------------------------------------------------------->>

|<-------------------------------------------------------------->>>>>>>>>>>>>
|<-------------------------------------------------------------->>>>>>>>>>>>>
|<10h12p10,9h10p9,7h9p7--7,9,10,7~---------------------10-----12>>>>>>>>>>>>>
|<---------------------10--------------10~-----14~10h12--12h14-->>>>>>>>>>>>>
|<--------------------------------10h12---12h15----------------->>>>>>>>>>>>>
|<-------------------------------------------------------------->>>>>>>>>>>>>

|<------------------------------------------------------------------------>>>
|<------------------------------------------------------------------------>>>
|<-----14~17,15,14,14h15p14--------14,17--14/12--------------------------->>>
|<12,15--------------------17,15,14-----15-----15,14,12,15,14-----12,14,15>>>
|<-----------------------------------------------------------15,12-------->>>
|<------------------------------------------------------------------------>>>
    .....  .....                  __________________________________________
|<-------------------------------------------------------------------------->
|<-------------------------------------------------------------------------->
|<14-----12-----10--10h12-----10~-14,9,7,14,9,7,14,9,7,15,7,15,9,7,17,7,17,9>
|<--12,12--12,12--12-----10,12---------------------------------------------->
|<-------------------------------------------------------------------------->
|<-------------------------------------------------------------------------->
  __________________________________________________________________________
|<-------------------------------------------------------------------------->
|<-------------------------------------------------------------------------->
|<7,17,9,7,17,9,7,19,9,7,19,9,7,19,9,7,17,7,17,9,7,15,7,15,9,7,14,9,7,14,9,7>
|<-------------------------------------------------------------------------->
|<-------------------------------------------------------------------------->
|<-------------------------------------------------------------------------->

|<---------------------------------------------------------------------------|
|<-----------------15--------------------------------------------------------|
|<14,15,14,17-15,14---17,15,17-15,14,15,14,12h14p12,10h12p10,9,10,9----------|
|<-----------------------------------------------------------------12,10---0-|
|<---------------------------------------------------------------------------|
|<---------------------------------------------------------------------------|
            
Submit corrections

↑ Back to top | Tablatures and chords for acoustic guitar and electric guitar, ukulele, drums are parodies/interpretations of the original songs. You may use it for private study, scholarship, research or language learning purposes only