Home » D » Destroyer 666 »

Destroyer 666 - Trialed By Fire Tabs

Artists:  A B C D E F G H I J K L M N O P Q R S T U V W X Y Z # 

Trialed By Fire Tabs
Version #1
Destroyer 666


Copy URL
Tuning: Eb

Clean intro
e|------------------------------------------------------------------------------------------------|
B|------------------------------------------------------------------------------------------------|
G|-------------------------------------------------------------------------------------------2----|
D|------2---2-------2---2-------2---2-------2---2-------2---2-------2---2-------2---2-------------|
A|0-0-0---0---0-0-0---0---0-0-0---0---0-0-0---0---3-3-3---3---3-3-3---3---3-3-3---3---3-3-3-------|
E|------------------------------------------------------------------------------------------------|

e|---------------------------------------------------------------------------------------------------|
B|---------------------------------------------------------------------------------------------------|
G|9---------------------10-9---------------------9-7---------------------7-5-------------------------|
D|----7-7---7-7---7-7----------7-7---7-7---7-7---------7-7---7-7---7-7---------7-7---7-7---7-7-------|
A|-0-0---0-0---0-0---0-0----0-0---0-0---0-0---0-0---0-0---0-0---0-0---0-0---0-0---0-0---0-0---0-0----|
E|---------------------------------------------------------------------------------------------------|


e|---------------------------------------------------------------------------|
B|---------------------------------------------------------------------------|
G|4-4-4-2-2-2-0-0-0----------------------------------------------------------|
D|-----------------3-3-3-2-2-2-0-0-0-------2-2-------2-2-------2-2-----------|
A|-----------------------------------3-3-3--3--3-3-3--3--3-3-3--3-5-5-5-5-5-5|
E|---------------------------------------------------------------------------|

Distorted
e|---------------------------------------------------------------------------|
B|---------------------------------------------------------------------------|
G|---------------------------------------------------------------------------|
D|7--7-7-7--14---14/12-12-12/101010--9-9-9/7-7/5-----------------------------|
A|5--5-5-5--12---12/10-10-10/8-8-8-/-7-7-7/5-5/3-----------------------------|
E|---------------------------------------------------------------------------|

Verse
e|---------------------------------------------------------------------------|
B|---------------------------------------------------------------------------|
G|---------------------------------------------------------------------------|
D|2`--------5`----7`----7-9-1114---------------------------------------------|
A|0`--------3`----5`----5-7-9-12\--------------------------------------------|
E|---------------------------------------------------------------------------|

First lead
e|---------------------------------------------------------------------------|
B|---------------------------------------------------------------------------|
G|9`----14`---17`--19`--21`------21/19-19-19/17-17-17/16-16-16/14-14-14/16-14|
D|---------------------------------------------------------------------------|
A|---------------------------------------------------------------------------|
E|---------------------------------------------------------------------------|

e|---------------------------------------------------------------------------|
B|---------------------------------------------------------------------------|
G|---------------------------------------------------------------------------|
D|14---14/12-12-12/101010--9-9-9/7-7-2---------------------------------------|
A|12---12/10-10-10/8-8-8-/-7-7-7/5-5-0---------------------------------------|
E|---------------------------------------------------------------------------|

Solo after interlude, repeat last part
e|---------------------------------------------------------------------------|
B|15b-15b-15b---15b---15b+---13----------------------------------------------|
G|-------------------------------------------------2p0h2--2---2--------------|
D|-------------------------------2p0h2-3p2h3-5p3h5--------------3-2----------|
A|---------------------------------------------------------------------------|
E|---------------------------------------------------------------------------|

e|---------------------------------------------------------------------------|
B|---------------------------------------------------------------------------|
G|---------------------------------------------------------------------------|
D|9--9-9-9-9-9-12-7-9--9-9-9-9-12-107----------------------------------------|
A|7--7-7-7-7-7-10-5-7--7-7-7-7-10-8-5----------------------------------------|
E|---------------------------------------------------------------------------|

Lead
e|---------------------------------------------------------------------------|
B|---------------------------------------------------------------------------|
G|4--4-5-4-4-2---------------------------------------------------------------|
D|---------------------------------------------------------------------------|
A|---------------------------------------------------------------------------|
E|---------------------------------------------------------------------------|            
Submit corrections

↑ Back to top | Tablatures and chords for acoustic guitar and electric guitar, ukulele, drums are parodies/interpretations of the original songs. You may use it for private study, scholarship, research or language learning purposes only