Home » D » Destroyer 666 »

Destroyer 666 - The Fall Of Shadows Tabs

Artists:  A B C D E F G H I J K L M N O P Q R S T U V W X Y Z # 

The Fall Of Shadows Tabs

(ver. 1) Click to play this song!
Destroyer 666
Tuning: Eb

Intro/Main riff
e|--------------------------------------------------------------------------------------------|
B|--------------------------------------------------------------------------------------------|
G|--------------------------------------------------------------------------------------------|
D|------8---8---8---8---8---7h8p7---8h10p8\7--------8---8---8---8---8------7h8p7---8h10p8\7---|
A|0-0-0---0---0---0---0---0-------9-----------0-0-0---0----0----0----0---0-------9------------|
E|--------------------------------------------------------------------------------------------|

e|---------------------------------------------------------------------------|
B|---------------------------------------------------------------------------|
G|---------------------------------------------------------------------------|
D|-----7`--8`-7`-------7`--8`-7`---------8---8---8---8---8---10-\--7---------|
A|8`-------------8``-------------8`7`------0---0---0---0-----8--\--5---------|
E|---------------------------------------------------------------------------|

All tremolo picked
e|---------------------------------------------------------------------------|
B|---------------------------------------------------------------------------|
G|---------------------------------------------------------------------------|
D|7---10p7--10p7-10---8--10p8------------------------------------------------|
A|----------------------------7---5---7--------------------------------------|
E|----------------------------------------7----------------------------------|            
Submit corrections

↑ Back to top | Tablatures and chords for acoustic guitar and electric guitar, ukulele, drums are parodies/interpretations of the original songs. You may use it for private study, scholarship, research or language learning purposes only