» » »

Descendents - Suburban Home Tabs

Artists:  A B C D E F G H I J K L M N O P Q R S T U V W X Y Z # 

Suburban Home Tabs

(ver. 2) Click to play this song!
Descendents
 Rating:
4/5 (4 votes)

 Suburban Home lessons Tabs too difficult? Try these video lessons and learn fast
 
                "Suburban Home"
The Descendents
Standard Tuning with distortion
If there's something wrong, let me know in the comments.

Intro
e|---------666-5-555----------666-5--------|
B|77777777-666-5-555-77777777-666-5-101010-|
G|77777777-777-6-666-77777777-777-6-101010-|
D|77777777-888-7-777-77777777-888-7-101010-|
A|55555555-888-7-777-55555555-888-7-8-8-8--|
E|---------666-5-555----------666-5--------|

Verse
e|---------666-5-555---------------------------|
B|77777777-666-5-555-77777777-1010101010101010-|
G|77777777-777-6-666-77777777-1010101010101010-|
D|77777777-888-7-777-77777777-1010101010101010-|
A|55555555-888-7-777-55555555-8-8-8-8-8-8-8-8--|
E|---------666-5-555---------------------------|

Chorus
e|-----------------------------------------------------|
B|---------------------------------7777777777----------|
G|12121212121212121212121212121212-77777777779910101111
D|12121212121212121212121212121212-77777777779910101111
A|10101010101010101010101010101010-5555555555778-8-9-9-|
E|-----------------------------------------------------|

Chorus Cont'd
e|------------------------------------------555----------555-----------555----------555-|
B|---------------------------------77777777-555-77777777-555-777777777-555-77777777-555-|
G|12121212121212121212121212121212-77777777-666-77777777-666-777777777-666-77777777-666-|
D|12121212121212121212121212121212-77777777-777-77777777-777-777777777-777-77777777-777-|
A|10101010101010101010101010101010-55555555-777-55555555-777-555555555-777-55555555-777-|
E|------------------------------------------555----------555-----------555----------555-|

Intro Variation
e|---------666-5------------|
B|77777777-666-5-101010-----|
G|77777777-777-6-101010-----|
D|77777777-888-7-101010-----|
A|55555555-888-7-8-8-8------|x2
E|---------666-5------------|

Verse
Chorus

Chorus Cont'd Variation
e|------------------------------------------555----------555----------555-----------|
B|---------------------------------77777777-555-77777777-555-77777777-555-777777777-|
G|12121212121212121212121212121212-77777777-666-77777777-666-77777777-666-777777777-|
D|12121212121212121212121212121212-77777777-777-77777777-777-77777777-777-777777777-|
A|10101010101010101010101010101010-55555555-777-55555555-777-55555555-777-555555555-|
E|------------------------------------------555----------555----------555-----------|

Bridge
e|-------------------------------------------------------------------------|
B|-------------------------------------------------------------------------|
G|-------------------------------------------------------------------------|
D|333-55-33-----------33-44-55-33-----------33-44-77-55-----------6/777----|
A|---------55-11-33-55-----------55-11-33-55-----------77-44-55-77-----888-|
E|-------------------------------------------------------------------------|

Intro Variation
Intro
Chorus

Chorus Cont'd Variation 2
e|------------------------------------------555-|
B|---------------------------------77777777-555-|
G|12121212121212121212121212121212-77777777-666
D|12121212121212121212121212121212-77777777-777
A|10101010101010101010101010101010-55555555-777
E|------------------------------------------555

Outro
e|-----------------------------------------------------------------------2-|
B|777788887777-777788887777-777788887777-777788887777-7-7-7-7-7-7-7-7-7--3-|
G|777788887777-777788887777-777788887777-777788887777-7-7-7-7-7-7-7-7-7--2-|
D|777788887777-777788887777-777788887777-777788887777-7-7-7-7-7-7-7-7-7--0-|
A|555566665555-555566665555-555566665555-555566665555-5-5-5-5-5-5-5-5-5----|
E|-------------------------------------------------------------------------|


Lyrics:

(Spoken)
I want to be stereotyped
I want to be classified

I want to be stereotyped
I want to be classified
I want to be a clone
I want a suburban home
Suburban home
Suburban home
Suburban home
I want to be masochistic
I want to be a statistic
I want to be a clone
I want a suburban home
Suburban home
Suburban home
Suburban home
I don't want no hippie pad
I want a house just like mom and dad
and so on.
            
Submit corrections


        Suburban Home lessons Hard to play? Try these video lessons and learn fast Suburban Home lessons
        
↑ Back to top | Tablatures and chords for acoustic guitar and electric guitar, ukulele, drums are parodies/interpretations of the original songs. You may use it for private study, scholarship, research or language learning purposes only