» » »

Descendents - Suburban Home Bass

Artists:  A B C D E F G H I J K L M N O P Q R S T U V W X Y Z # 

Suburban Home Bass

(ver. 1) Click to play this song!
Descendents
 Rating:
4/5 (4 votes)

 Suburban Home lessons Tabs too difficult? Try these video lessons and learn fast
 
                credit goes to him.

    Note:10's 11's & 12's are tens elevens and twelves, not one's zero's and  two's

---------------------------------|
---------------------------------|x4
-4-5-5-5-5-5-5-5-----------------|
-----------------6-6-6-5---5-5-5-|

---------------------------------------------12-12-11-11-11-11-11-11-11-11-|
-------------9-9-9-9-12-12-12-12-12-12-12-12-------------------------------|
-10-10-10-10---------------------------------------------------------------|
---------------------------------------------------------------------------|

-11-11-9-9-----------|
-----------12-12-9-9-|
---------------------|
---------------------|

---------------------------------------------12-12-11-11-11-11-11-11-11-11-|
-------------9-9-9-9-12-12-12-12-12-12-12-12-------------------------------|
-10-10-10-10---------------------------------------------------------------|
---------------------------------------------------------------------------|

------------------------|
------------------------|x3
-4-4-4-5-5-5-5-5-5-5-5--|
------------------------|

-------|
-------|
-------|
-5-5-5-|

---------------------------------|
---------------------------------|x4
-4-5-5-5-5-5-5-5-----------------|
-----------------6-6-6-5---5-5-5-|

---------------------------------------------12-12-11-11-11-11-11-11-11-11-|
-------------9-9-9-9-12-12-12-12-12-12-12-12-------------------------------|
-10-10-10-10---------------------------------------------------------------|
---------------------------------------------------------------------------|

-11-11-9-9-----------|
-----------12-12-9-9-|
---------------------|
---------------------|

---------------------------------------------12-12-11-11-11-11-11-11-11-11-|
-------------9-9-9-9-12-12-12-12-12-12-12-12-------------------------------|
-10-10-10-10---------------------------------------------------------------|
---------------------------------------------------------------------------|

------------------------|
------------------------|x3
-4-4-4-5-5-5-5-5-5-5-5--|
------------------------|

-----------------------------------------------------------------------------|
-3-3-3-5-5-3-3-5---3-------------------3---5---7---5--3-----3-4-5-7--7-7-7-7-|
-----------------------5-------3---5----------------------5------------------|
---------------------------5-------------------------------------------------|

-----------------|
-7-7-7-7---------|
-----------8-8-8-|
-----------------|

---------------------------------|
---------------------------------|x4
-4-5-5-5-5-5-5-5-----------------|
-----------------6-6-6-5---5-5-5-|

---------------------------------------------12-12-11-11-11-11-11-11-11-11-|
-------------9-9-9-9-12-12-12-12-12-12-12-12-------------------------------|
-10-10-10-10---------------------------------------------------------------|
---------------------------------------------------------------------------|

-11-11-9-9-----------|
-----------12-12-9-9-|
---------------------|
---------------------|

---------------------------------------------12-12-11-11-11-11-11-11-11-11-|
-------------9-9-9-9-12-12-12-12-12-12-12-12-------------------------------|
-10-10-10-10---------------------------------------------------------------|
---------------------------------------------------------------------------|


------------------------|
------------------------|x3
-5-5-5-5-6-6-6-6-5------|
---------------------5--|

-------------------------------------------------------------------------|
-------------------------------------------------------------------------|
-5-----5-----5-----5-----5-----5-----5-----5-----5----5---------5-5----/0|
-------------------------------------------------------------------------|
            
Submit corrections


        Suburban Home lessons Hard to play? Try these video lessons and learn fast Suburban Home lessons
        
↑ Back to top | Tablatures and chords for acoustic guitar and electric guitar, ukulele, drums are parodies/interpretations of the original songs. You may use it for private study, scholarship, research or language learning purposes only