» » »

Descendents - Pervert Tabs

Artists:  A B C D E F G H I J K L M N O P Q R S T U V W X Y Z # 

Pervert Tabs

(ver. 2) Click to play this song!
Descendents
 Rating:
2.3/5 (22 votes)

 Pervert lessons Tabs too difficult? Try these video lessons and learn fast
 
                Intro

e|---------------------------------|---------------------------------|----------------------------------|
B|---------------------------------|---------------------------------|----------------------------------|
G|-7---7---7---7---7---7---7---7---|-12--12--12--12--12--12--12--12--|-------------10-------------------|
D|-7---7---7---7---7---7---7---7---|-12--12--12--12--12--12--12--12--|-8---8---8---10---10--------------|
A|-5---5---5---5---5---5---5---5---|-10--10--10--10--10--10--10--10--|-8---8---8----8---10--------------|
E|---------------------------------|---------------------------------|-6---6---6---------8--------------|


Riff 1.

e|---------------------------------|---------------------------------|-----------------------|
B|---------------------------------|---------------------------------|-----------------------|
G|-7---7---7---7---7---7---7---7---|-12--12--12--12--12--12--12--12--|-------------10--------|
D|-7---7---7---7---7---7---7---7---|-12--12--12--12--12--12--12--12--|-8---8---8---10---10---|
A|-5---5---5---5---5---5---5---5---|-10--10--10--10--10--10--10--10--|-8---8---8----8---10---|
E|---------------------------------|---------------------------------|-6---6---6---------8---| 1. 2. 3.


e|---------------------------------|---------------------------------|----------------------------|
B|---------------------------------|---------------------------------|----------------------------|
G|-7---7---7---7---7---7---7---7---|-12--12--12--12--12--12--12--12--|------------------10--8-----|
D|-7---7---7---7---7---7---7---7---|-12--12--12--12--12--12--12--12--|-8---8---8---10---10--8-----|
A|-5---5---5---5---5---5---5---5---|-10--10--10--10--10--10--10--10--|-8---8---8---10----8--6-----|
E|---------------------------------|---------------------------------|-6---6---6----8-------------| 4.


Break 1. 

e|------------------------|---------------------------------|---------------------------------|
B|------------------------|---------------------------------|---------------------------------|
G|-7---7---8----7---------|-12--12--12--12--12--12--12--12--|-12--12--12--12--12--12--12--12--|
D|-7---7---8----7---------|-12--12--12--12--12--12--12--12--|-12--12--12--12--12--12--12--12--|
A|-5---5---6----5---------|-10--10--10--10--10--10--10--10--|-10--10--10--10--10--10--10--10--|
E|------------------------|---------------------------------|---------------------------------|


Riff 2.

e|---------------------------------|---------------------------------|---------------------------------|
B|---------------------------------|---------------------------------|---------------------------------|
G|-8---8---8---8---8---8---8---8---|-5---5---5---5---5---5---5---5---|-7---7---7---7---7---7---7---7---|
D|-8---8---8---8---8---8---8---8---|-5---5---5---5---5---5---5---5---|-7---7---7---7---7---7---7---7---|
A|-6---6---6---6---6---6---6---6---|-3---3---3---3---3---3---3---3---|-5---5---5---5---5---5---5---5---|
E|---------------------------------|---------------------------------|---------------------------------|


e|---------------------------------|---------------------------------|---------------------------------|
B|---------------------------------|---------------------------------|---------------------------------|
G|-12--12--12--12--12--12--12--12--|-8---8---8---8---8---8---8---8---|-5---5---5---5---5---5---5---5---|
D|-12--12--12--12--12--12--12--12--|-8---8---8---8---8---8---8---8---|-5---5---5---5---5---5---5---5---|
A|-10--10--10--10--10--10--10--10--|-6---6---6---6---6---6---6---6---|-3---3---3---3---3---3---3---3---|
E|---------------------------------|---------------------------------|---------------------------------|


e|---------------------------------|---------------------------------|------------------------------|
B|---------------------------------|---------------------------------|------------------------------|
G|-7---7---7---7---7---7---7---7---|---------------------------------|--------------3---3---3---5---|
D|-7---7---7---7---7---7---7---7---|-5---5---5---5---5---5---5---5---|-3----3---3---3---3---3---5---|
A|-5---5---5---5---5---5---5---5---|-5---5---5---5---5---5---5---5---|-3----3---3---1---1---1---3---|
E|---------------------------------|-3---3---3---3---3---3---3---3---|-1----1---1-------------------|


e|-------------------|---------------------------------|
B|-------------------|---------------------------------|
G|-----3----6---5----|-3---3---3---3---3---3---3---3---|
D|-----3----6---5----|-3---3---3---3---3---3---3---3---|
A|-----1----4---3----|-1---1---1---1---1---1---1---1---|
E|-------------------|---------------------------------|

Riff 3.

e|---------------------------------|---------------------------------|
B|---------------------------------|---------------------------------|
G|---------------------------------|-8---8---8---8---8---8---8---8---|
D|-3---3---3---3---3---3---3---3---|-8---8---8---8---8---8---8---8---|
A|-3---3---3---3---3---3---3---3---|-6---6---6---6---6---6---6---6---|
E|-1---1---1---1---1---1---1---1---|---------------------------------|

e|---------------------------------|
B|---------------------------------|
G|---------------------------------|
D|-8---8---8---8---8---8---8---8---|
A|-8---8---8---8---8---8---8---8---|
E|-6---6---6---6---6---6---6---6---|


Riff 4.

e|------------------------|-----------------------------|
B|------------------------|-----------------------------|
G|-10---10----------------|-----------------------------|
D|-10---10---7---10--7----|-8---8---8---8---8---8---8---|
A|--8----8---7---10--7----|-8---8---8---8---8---8---8---|
E|-----------5---8---5----|-6---6---6---6---6---6---6---|


Riff 1.

Break 1. 

Riff 2.

Riff 3.

Riff 4.

Riff 3.

End.

e|---------------------------------|-----------------------------|
B|---------------------------------|-----------------------------|
G|---------------------------------|-----------------------------|
D|-3---3---3---3---3---3---3---3---|-8---8---8---8\--------------|
A|-3---3---3---3---3---3---3---3---|-8---8---8---8\--------------|
E|-1---1---1---1---1---1---1---1---|-6---6---6---6\--------------|            
Submit corrections


        Pervert lessons Hard to play? Try these video lessons and learn fast Pervert lessons
        
↑ Back to top | Tablatures and chords for acoustic guitar and electric guitar, ukulele, drums are parodies/interpretations of the original songs. You may use it for private study, scholarship, research or language learning purposes only