» » »

Descendents - Cool To Be You Tabs

Artists:  A B C D E F G H I J K L M N O P Q R S T U V W X Y Z # 

Cool To Be You Tabs

(ver. 2) Click to play this song!
Descendents
 Rating:
4/5 (4 votes)

 Cool To Be You lessons Tabs too difficult? Try these video lessons and learn fast
 
                Cool To Be You
Descendents
Standard tuning (EADGBe)

Verse:
e|---------------------|
B|---------------------|
G|---------4-----4--6--|
D|-666--4--4--4--4--6--|
A|-666--4--2--4--2--4--|
E|-444--2-----2--------|

e-------------------|
B-------------------|
G------4------------|
D-6----4----4----6--|
A-6----2----4----6--|
E-4---------2----4--|

e|---------------------|
B|---------------------|
G|---------4-----4--6--|
D|-666--4--4--4--4--6--|
A|-666--4--2--4--2--4--|
E|-444--2-----2--------|

Chorus:
e|---------------------|
B|---------------------|
G|-9999----------------|
D|-9999-9999-4444-6666-|
A|-7777-9999-4444-6666-|
E|------7777-2222-4444-|

e|---------------------|
B|---------------------|
G|-9999----------------|
D|-9999-9999-4444-2222-|
A|-7777-9999-4444-2222-|
E|------7777-2222-0000-|

e|---------------------|
B|---------------------|
G|-9999------8888-6666-|
D|-9999-9999-8888-6666-|
A|-7777-9999-6666-4444-|
E|------7777-----------|

e|----------------------------|
B|----------------------------|
G|-9999---------4-3---9-8---8-|
D|-9999-9999-44-----5-9-8-6-8-|
A|-7777-9999-44-------7-6-6-6-|
E|------7777-22-----------4---|

I'm pretty sure this is 100% correct. All the other tabs for this song were way off.
            
Submit corrections


        Cool To Be You lessons Hard to play? Try these video lessons and learn fast Cool To Be You lessons
        
↑ Back to top | Tablatures and chords for acoustic guitar and electric guitar, ukulele, drums are parodies/interpretations of the original songs. You may use it for private study, scholarship, research or language learning purposes only