» » »

Descendents - Clean Sheets Tabs

Artists:  A B C D E F G H I J K L M N O P Q R S T U V W X Y Z # 

Clean Sheets Tabs

(ver. 2) Click to play this song!
Descendents
 Rating:
4.3/5 (21 vote)

 Clean Sheets lessons Tabs too difficult? Try these video lessons and learn fast
 
                
[Chords]
     E   D   G   C   B
e|----------------------|
B|----------------------|
G|---9---7-------5---4--|
D|---9---7---5---5---4--|
A|---7---5---5---3---2--|
E|-----------3----------|

[Intro - part 1]
e|-----------------|
B|-----------------|
G|--9-9--9--9---7~-|
D|--9-9--9--9---9~-|   x4
A|--7-7--7--7---7~-|
E|-----------------|

[Intro - part 2]
e|------------------------------------------------------------|
B|------------------------------------------------------------|
G|-----------7-7-7-7--12-12-12-12--5-5-5-5--4-4-4-4--5-5-5-5--|
D|--5-5-5-5--7-7-7-7--12-12-12-12--5-5-5-5--4-4-4-4--5-5-5-5--|
A|--5-5-5-5--5-5-5-5--10-10-10-10--3-3-3-3--2-2-2-2--3-3-3-3--|
E|--3-3-3-3---------------------------------------------------|

[Verse 1]
G                       D            C
Clean sheets mean a lot to a guy who sleeps on the floor
G                  D                   C
I wanted your love and a shelf on your dresser drawer
G                 D                      C
You tucked me in, stopped my tossing and turning
G                                  D                    C
But I turned back the covers and I saw those sheets are dirty

[Chorus]
E                                        G         C
Even though you'll never come clean, you know it's true
G                D         B      C
Those sheets are dirty and so are you

[Verse 2]
G                   D            C
The warmth of a bed to a guy who sleeps on the floor
G                                D              C
Was enough to perpetuate all the lies I heard before
G                      D              C
Now I want to hold you, gotta hold my pillow instead
G                                  D                  C
'Cause my pillow will never lie or be with a stranger in my bed

[Chorus]
E                                        G         C
Even though you'll never come clean, you know it's true
G                D         B      C
Those sheets are dirty and so are you

[Bridge]
B                      C
Where's the love I was looking for?
     G
It's out the door
B                 C 
I'm afraid to see you anymore
        G
So it's back on the floor
       B                C
'Cause those sheets are dirty

[Break]
e|-----------------|
B|-----------------|
G|--9-9--9--9---7~-|
D|--9-9--9--9---9~-|   x3
A|--7-7--7--7---7~-|
E|-----------------|

[Solo]
e|----------------------------------------------|
B|-----------------------3p2h3--5p3p2-----------|
G|----------------4p2h4-------------------------|
D|---------5p4h5--------------------------------|
A|--7p5h7---------------------------------------|
E|----------------------------------------------|

e|--5b7p3----3-----3----------0--3--0-----0-----|
B|--------7-----5------3~--------------3------1-|
G|----------------------------------------------|
D|----------------------------------------------|
A|----------------------------------------------|
E|----------------------------------------------|

e|-----------2-----3~---3--2------3-2----7-5-3--|
B|-0-0--3-3----3-0------------3-------3---------|
G|----------------------------------------------|
D|----------------------------------------------|
A|----------------------------------------------|
E|----------------------------------------------|

e|---------------14---------15------------------|
B|-12-12--15--15----15--12----------------------|
G|----------------------------------------------|
D|----------------------------------------------|
A|----------------------------------------------|
E|----------------------------------------------|

[Behind the solo]
e|--------------------------------------------------------|
B|--------------------------------------------------------|
G|-----------7-7-7-7-----------5-5-5-5--4-4-4-4--5-5-5-5--|
D|--5-5-5-5--7-7-7-7--5-5-5-5--5-5-5-5--4-4-4-4--5-5-5-5--|   x2
A|--5-5-5-5--5-5-5-5--5-5-5-5--3-3-3-3--2-2-2-2--3-3-3-3--|
E|--3-3-3-3-----------3-3-3-3-----------------------------|

[Verse 3]
G                     D                 C
Woke up this morning alone on the floor
G                                         D            C
Thinking about those clean sheets and the way it was before
G                             D                 C
When I looked in the mirror I saw your face and thought of the past
G                                 D                C
But now I know how dirty you are, took my fist and smashed the glass

[Chorus]
E                                        G         C
Even though you'll never come clean, you know it's true
G                D         B      C
Those sheets are dirty and so are you
E                                        G         C
Even though you'll never come clean, you know it's true
G                D         B      C
Those sheets are dirty and so are you

[Outro]
G     D    
B                C
Those sheets are dirty
G     D    
B                C
Those sheets are dirty

e|----------------------------------------|
B|----------------------------------------|
G|--12-12-12-11--7~--12-12-12-7--5~-------|
D|--12-12-12-11--7~--12-12-12-7--5~---5~--|
A|--10-10-10-9---5~--10-10-10-5--3~---5~--|
E|------------------------------------3~--|            
Submit corrections


        Clean Sheets lessons Hard to play? Try these video lessons and learn fast Clean Sheets lessons
        
↑ Back to top | Tablatures and chords for acoustic guitar and electric guitar, ukulele, drums are parodies/interpretations of the original songs. You may use it for private study, scholarship, research or language learning purposes only