Home » D » Derek And The Dominos »

Derek And The Dominos - Nobody Knows You When Tabs

Artists:  A B C D E F G H I J K L M N O P Q R S T U V W X Y Z # 

Nobody Knows You When Tabs

(ver. 1) Click to play this song!
Derek And The Dominos
                ?Nobody Knows You when You?re Down and Out?
as recorded by Derek and the Dominos

intro
-------------------|----------------------------------|
------13-13-15fb-v-|-15fb-15fb-15fb--15fb-fr-p-13-----|
--\14--------------|------------------------------14v-|
-------------------|----------------------------------|
-------------------|----------------------------------|
-------------------|----------------------------------|

---------------------8-------------------|-----3---|
-11fb-11fb-11------8---11----------------|-3\5-----|
--------------10fb--------10fb-fr-8hb----|---------|
--------------------------------------10-|-------5-|
-----------------------------------------|---------|
-----------------------------------------|---------|

the verses and chorus both have the same chord progressiondurring these
parts of the song apergiates the following chords:

C E7 A7 A7
Dm A7 Dm Dm
F F#dim C C/B A7
D7 D7 G7 G7

Here are the chord shapes:

-0--|-0--|-0--|-1--|-1--|-1--|-0--|-2--|-1--|
-1--|-3--|-2--|-3--|-1--|-1--|-1--|-1--|-0--|
-0--|-1--|-0--|-2--|-2--|-2--|-0--|-2--|-0--|
-2--|-0--|-2--|-0--|-3--|-4--|-x--|-0--|-0--|
-3--|-2--|-0--|----|----|----|-2--|----|-2--|
----|-0--|----|----|----|----|----|----|-3--|
 C    E7   A7   Dm   F   F#dim C/B  D7   G7

solo part 1
-------------------|-15fb-fr------------------------|
------13-13-15fb-v-|---------15fr-13-h-15-p-13------|
--\14--------------|---------------------------14-v-|
-------------------|--------------------------------|
-------------------|--------------------------------|
-------------------|--------------------------------|

------------------------------|-------------------|
------------------------------|-------------------|
----10-12-12fb-12fb-12fb-12fb-|-12fb-12fr-p-10----|
-12---------------------------|----------------12-|
------------------------------|-------------------|
------------------------------|-------------------|

----|---------13----15-13-15fb-|-17-15-15fb-15----------------|
----|------13----13------------|---------------15fb-fr-p-13---|
----|-15fb---------------------|------------------------------|
----|--------------------------|------------------------------|
----|--------------------------|------------------------------|
-x\-|--------------------------|------------------------------|
--------------------------------------------------------------|
-------13v-13v--------13v-13v--------13v-13v------------------|
-12\14----------12\14----------12\14--------------------------|
--------------------------------------------------------------|
--------------------------------------------------------------|
--------------------------------------------------------------|

----------------------------------------------------------|
-8----8----8----8----8----11------------------------------|
-10fb-10fb-10fb-10fb-10fb----10fb-fr-8--------------------|
---------------------------------------10-8----------8\10-|
--------------------------------------------10-8-6--------|
---------------------------------------------------8------|

That?s all for now part 2 of the solo might be posted soon!

\  = slide          x  = dead string
fb = full bend      hb = half bend
fr = full release   hr = half release
p  = pull off       h  = hammer on
v  = vibrato
            
Submit corrections

↑ Back to top | Tablatures and chords for acoustic guitar and electric guitar, ukulele, drums are parodies/interpretations of the original songs. You may use it for private study, scholarship, research or language learning purposes only